Tag: black

Black Hole Tabs by Washya

 -----------------------------------------------------------------------------
                   Black Hole - Washya
-----------------------------------------------------------------------------
Tuning: Standard (EBGDAE)
Intro
E|-------------------------------------------------------------------|
B|-------------------------------------------------------------------|
G|-------------------------------------------------------------------|
D|---------------------------------------------------0---------------|
A|-----------------1h2---------------------------2p1---2-----2-2-2-2-|
E|-0-0-0-0-0-0-0-0-----3-0-1-3-0-0-0-0-0-0-0-0-3---------3p2-0-0-0-0-|
PM * * * * * * * *             * * * * * * * *               * * * *

E|-----|
B|-----|
G|-----|
D|-5-8-|
A|-5-8-|
E|-3-6-|

Verses
E|---------------| |---------------------|
B|---------------| |---------------------|
G|---------------| |---------------------|
D|---------------| |---------------------|
A|---------3/4/5-| |---------8-7-5/6-5-3-|
E|-0-3-1-0-1/2/3-| |-0-3-1-0-6-5-3/4-3-1-|
PM * * * *    x12 PM * * * *             x3

Chorus
E|-----------------------------------------------------------------|
B|-----------------------------------------------------------------|
G|-----------------------------------------------------------------|
D|-------------------------------------------8-7-8-------8-7-8-8\5-|
A|---------5-6-5~---5-6-5--------------5-4-5-6-5-6-5-4-5-6-5-6-8\5-|
E|-0-000-3--------3--------6-5-0-0-0-0-3-2-3-------3-2-3-------6\3-| 

Dont Look Behind Tabs by Black Lagoon Ending

 So, it's my first tabulature and, if you think something wrong with this
tabs, please, let me know, cuz i do want to make this tabs perfect
(skype: takiedela3). Also i'm really not sure about last notes.

E|-----------------------------------------------------------------|
B|-----------------------------------------------------------------|
G|-----------------------------------------------------------------|
D|-14-15--14-15-17--14-15--14-15-17--14-15--14-15-17-14--15-14-12--|
A|-----------------------------------------------------------------|
E|-----------------------------------------------------------------|

E|-----------------------------------------------------------------|
B|-----------------------------------------------------------------|
G|-----------------------------------------------------------------|
D|-16-17--16-17-19--16-17--16-17-19--16-17--16-17-19-16--14--------|
A|-----------------------------------------------------------------|
E|-----------------------------------------------------------------|

E|-----------------------------------------------------------------|
B|-----------------------------------------------------------------|
G|-14-15--14-15-17--14-15--14-15-17--14-15--14-15-17-14--12--------|
D|-----------------------------------------------------------------|
A|-----------------------------------------------------------------|
E|-----------------------------------------------------------------|

E|---------------------------------------------------10------------|
B|---------------------------------------------------10------------|
G|-16-14----16-14---14-12----14-12---12-10----12-10--10/9----------|
D|-------14---------------12---------------10--------12/11---------|
A|-----------------------------------------------------------------|
E|-----------------------------------------------------------------|

Little Black Dress chords – One Direction V2

 Little Black Dress – One Direction
Capo 2

[Intro]

e|----2-2-0-0-0-0----------2-2-0-0-0-0----3-----------3---------|
B|----3-3-2-2-2-2-3--3-----3-3-2-2-2-2-3--3---2b3r2---3—2b3r2---|
G|----2-2-2-2-2-2-4--4-----2-2-2-2-2-2-4--0---------2-0-------2-|
D|-0--------------0--0---0-------------0--0-----------0---------|
A|----------------------------------------x-----------x---------|
E|----------------------------------------3-----------3---------|

[Verse 1]

D(8) (or intro)
Little black dress, just walked into the room
 D (8)                                      G (8)
Makin' heads turn, can't stop looking at you - it's all right,
It's all right It's all right you know

[Verse 2]

D(8)  (or intro)
Little black dress Did you come here alone?
 D (8)
It's too late It's too late It's too late to go home
 G (8)
It's all right It's all right It's all right you know
 G (8)
It's all right It's all right It's all right you know

CHORUS:
 A D D/F# (2)        G (4)
I wanna see the way you move for me baby
 A D D/F# (2)        G (4)
I wanna see the way you move for me baby
 A D D/F# (2)          G (8)
I wanna see the way you move for me

[Verse 3 & 4]

 D (8)
Little black dress Who you doin' it for?
 D (8)
Little black dress I can't take anymore
 G (8)
It's not right It's not right It's not right you know

 D (8)
Little black dress What's your favourite song?
Little black dress I won't do you no harm
 G (8)
It's all right It's all right It's all right you know
 G (8)
It's all right It's all right Cause I'll take you home

CHORUS:

 D (16)   G (16)

CHORUS X2

[Intro – repeat last G with bend]


(requested by Brittany from OLSHCK)

Black Heart Tabs by Stone Temple Pilots V2

 #----------------------------------PLEASE NOTE--------------------------------#
#This file is the author's own work and represents their interpretation of the#
#song. You may only use this file for private study, scholarship, or research.#
#-----------------------------------------------------------------------------#
#-- File created with Instab - http://www.pconline.com/~smcarey/instab.html --#
#-----------------------------------------------------------------------------#

Author/Artist: Stone Temple Pilots
Title: Black Heart
b bend
r release bend
h hammer on
/ slide up
A Arpeggio
m mute

G1 Two Guitars Arr. for One (eb A D f# a d), Down ~ 10%
G2 Solo Guitar Tuning (eb A D G B E), Down ~ 10%



----|--------------------------------------------------------------|----------|
----|--------------------------------------------------------------|----------|
----|-8---8--8-8--6-7-8---8--8-8--6-7-8---8--8-8-------------------|----------|
----|-5-5-5--5-5--x-x-5-5-5--5-5--x-x-5-5-5--5-5-5-5---------------|----------|
----|-------------8-9-------------8-9------------5-7-8--7--5-3-----|----------|
----|--------------------------------------------x-x-----------7-4-|----------|
 G1 Verse  m               m               m




----|---------------------------------------------|---------------------------|
----|---------------------------------------------|---------------------------|
----|-8b--8--8--8b--8--6b-8--8b-------------------|---------------------------|
----|-5b--5--5--5b--5--x--5--5b-5-5---------------|---------------------------|
----|------------------8b-------5-7-8--7--5-3-----|---------------------------|
----|---------------------------x-x-----------7-4-|---------------------------|
  Verse End




-|---------------------------------------------------------------------------|
-|---------------------------------------------------------------------------|
-|-------------13-13--------------13--8---------------13-13---------------13-|
-|---------12-----12----------12------------------12-----12-----------12-----|
-|-8h10-10------------8h10-10-------------8h10-10-------------8h10-10--------|
-|------------------------------------7--------------------------------------|
  Bridge          A                                      A



-|----------------------------------------------------------------------------|
-|----------------------------------------------------------------------------|
-|----------------------------------------------------------------------------|
-|-5--5--5-5-5-5--5--5--5-5-5-5--3--3--3-3-3-3--3--3--3-3-3-3--5--5--5-5-5-5--|
-|-6--6--6-5-6-5--6--6--6-5-6-5--5--5--5-3-5-3--5--5--5-3-5-3--6--6--6-5-6-5--|
-|-x--x--x-x-x-x--x--x--x-x-x-x--x--x--x-x-x-x--x--x--x-x-x-x--x--x--x-x-x-x--|
   Chorus       m  m  m        m  m  m        m  m  m



-------------------------------------|----------------------------------------|
-------------------------------------|----------------------------------------|
---------------------------13--13----|----------------------------------------|
--5--5-5-5-5------------12-12--12----|----------------------------------------|
--6--6-5-6-5------10-10--------------|----------------------------------------|
--x--x-x-x-x---11--------------------|----------------------------------------|
               Let Ring    A   A




----|-------------------------------------------------------|-----------------|
----|-------------------------------------------------------|-----------------|
----|---------------------------------------------------13--|-----------------|
----|------------------------------------------------12-----|-----------------|
-10-|-10---------------------------------------10-10--------|-----------------|
----|---------------------------------------11--------------|-----------------|
      "Rescue me..."                        "mind........."




----|------------------------------------

Nine Black Poppies chords – Mountain Goats

 I found this on the Mountain Goats forums and figured I'd cross-post it here since 
it wasn't up. Everything below my signature is the work of the guy below.
~Jackson

I typed up a cleaner/more complete version and thought I'd share it.  I got 
everything from the first tab, except I think the Bm is a B.  
(And by the video on YouTube (www.youtube.com/watch?v=8ajuJ82ynjQ), I think the 
first chord is slightly off, but it sounds alright to me.)
~Dan (daniel dot trombley at gmail dot com)

-Chords-

 C       x32010
 D       x00232
 Em      022000
 Am      x02210
 B       x2444x
 Aadd9   577600
Badd11 799800

[Main Riff]
    Eb D C# C E Em 
e--0--0---0--0---0--0--
B--0--0---0--0---0--0--
G--0--0---0--0---0--0--
D-------------------2--
A--6--5---4--3---7--2--
E-------------------0--

[Riff]
when i got home i meant to give you some sweet chrysanthemum
[Riff]
the wind chimes were ringing all wrong and you were standing in the doorway singing along

       C D Em Am 
and i tried to remember how nice it had been a long long time ago
                     Em B Em 
but i couldn't remember i honestly could not remember
 Aadd9           Badd11             Em Am    
 and a package came for you today from the hunan province
 C D Em Am   
 the postmark burning jetblack in the summer sun
     C D Em Am 
 someone was changing someone was changing from the inside out
        Em B Em 
 and i turned around to face you

[Riff]
sweet peas in the garden, all in full bloom
[Riff]
and i thought i heard the traces of an old song murmuring in the room

         C D Em Am 
like a half-remembered conversation, i let it slip away
                     Em B Em 
but i couldn't remember i honestly could not remember
 Aadd9           Badd11             Em Am    
 and a package came for you today from the hunan province
 C D Em Am   
 the postmark burning jetblack in the summer sun
     C D Em Am 
 someone was changing someone was changing from the inside out
        Em B Em 
 and i turned around to face you

Black And Blue chords – The White Buffalo

 The White Buffalo - Black and Blue

Have fun and please rate :)




 C .                   F .                C . 
Pack up your shit, we're through
 C .              F .                 C . 
Prepare for black and blue
 C .              F .                 C .              G .              Am 
She slams the door, out into the night she flew
 C .                  F .                   C .  
Maybe you'll shut the fuck up
 C .                    F .                  C .  
Well, it's late and that's quite enough
 C .               F .            C .                G .                Am . 
But I scan the streets, and I scream off the balcony for you


 C .              F .               C .     
Love
 C .              F .               C . 


 C .               F .               C . 
Drown myself, it's just as well
 C .              F .                 C  
Throw my body in the wishing well
 C .              F .             C .         G .           Am   
Fallin' apart, spellbound, scheming for you
 C .               F .              C .  
I'll crawl to the corner store
 C .                F .               C .  
Courage makes me want you more
 C .              F .            C .              G .          Am .      F .    C .    G . 
I'm fixin' my mind but I'm fuckin' it up For you, 


 Am .        F .            C .             G . 
for you
 Am .        F .            C .             G .    
it's all for you
 Am .        F .            C .             G . 
It's all for you
 Am .        F .            C .             G . 
It's all for you


 Am C .                F .                 C .  
Pack up your shit, we're through
 C .                F .                  C . 
Prepare for black and blue
 C .                F .                 C .            G .         Am .
She slams the door, out into the night she flew
 C .               F .                  C .   
Love, love, love

 C .             F .            C . 

Little Black Dress Tabs by One Direction

 Okay, so this song isn't very difficult, but it sounds awesome! It will sound best 
if you have a distortion effect. 

This tab isn't perfect, so if you see some room for improvement, please leave a comment!


Intro


e|----4-4-2-2-2-2-0-0-------------------------------------------------------|
B|----5-5-5-5-5-5-5-5--x2---------------------------------------------------|
G|----4-4-4-4-4-4-4-4-------------------------------------------------------|
D|------------------------------4h6-4/2-------------------------------------|
A|----------------------------0---------------------------------------------|
E|-0-------------------------------------0----------------------------------|

Verse:

Little black dress
Just walked into the room
Makin' heads turn
Can't stop looking at you
It's all right
It's all right
It's all right you know

e|----4-4-2-2-2-2-0-0--------------0-----0-----00---0--|
B|----5-5-5-5-5-5-5-5--x2----------2-----2-----22---2--|
G|----4-4-4-4-4-4-4-4----------x-x-2-x-x-2-x-x-22-x-2--|
D|-----------------------------x-x-2-x-x-2-x-x-22-x-2--|
A|-----------------------------x-x-0-x-x-0-x-x-00-x-0--|
E|-0---------------------------x-x---x-x---x-x----x----|

Little black dress
Did you come here alone?
It's too late
It's too late
It's too late to go home
It's all right
It's all right
It's all right you know
It's all right
It's all right
It's all right you know

CHORUS:

Riff:
e|----2-2/4-2-0-0-0-0--------|
B|-----------------2-2-0-----|
G|---------------------------|
D|---------------------------|
A|---------------------------|
E|---------------------------|

B                         A
I wanna see the way you move for me baby
B                          A
I wanna see the way you move for me baby
B                       A        E
I wanna see the way you move for me


Little black dress
Who you doin' it for?
Little black dress
I can't take anymore

It's not right
It's not right
It's not right you know


Little black dress
What's your favourite song?
Little black dress
I won't do you no harm


It's all right
It's all right
It's all right you know
It's all right
It's all right
Cause I'll take you home

CHORUS:
B                        A
I wanna see the way you move for me baby
B                         A
I wanna see the way you move for me baby
B                         A
I wanna see the way you move for me

Solo:

e|-/4------2------0-----0------2h4p2p0-----------------------|
B|-/5-x8---5-x8---5-x8--2--x8---------2-0--------------------|
G|-/4------4------4-----2----------------2-----x3------------|
D|----------------------------------------4-2----------------|
A|-----------------------------------------------------------|
E|-----------------------------------------------------------|

CHORUS X2

Welcome To The Black Parade chords – My Chemical Romance V5

 So I might be wrong since Version 4 has 5 stars, but I think it was wrong in
some spots? I took Version 4 and edited it to what I think is right, so
thanks to the author of 4 for a good deal of it. Anyways, when I play this
I'm pretty sure it's 100% correct, but feel free to comment if something
sounds wrong to you! -agg2596


                     CHORDS 
     G D Em C Am Bm B A F#m 
e---3---2---0----0---0----2----2---0----2------|
B---3---3---0----1---1----3----4---2----2------|
G---0---2---0----0---2----4----4---2----2------|
D---0---0---2----2---2----4----4---2----4------|
A---2---x---2----3---0----2----2---0----4------|
E---3---x---0----x---x----x----x---x----x------|



Piano Intro (Each dash is an eighth note)
e-------------------------------------|
B-------------------------------------|
G----------4--------------------------|
D----5---4---2---0-5-------2-----0----|
A--------------------3---2---0--------|
E-------------------------------------|

      G D  
When I was a young boy
     Em D G C 
My father took me into the city
    Bm Em Am   -   D 
To see a marching band
            G D 
He said, "Son, when you grow up
       Em D G C  
Would you be the savior of the broken
     Bm Em Am   -   D 
The beaten and the damned??
            G D         
He said, "Will you defeat them
       Em D G C 
Your demons and all the non-believers
       Bm Em Am   -   D 
The plans that they have made?
         G D  
Because one day, I'll leave you
     Em D G C 
A phantom to lead you in the summer
     Bm Em Am   -   D 
To join the Black Parade
 G D Em Bm C G Am D G D  
When I was a young boy
     Em D G C 
My father took me into the city
     Bm Em Am   -   D 
To see a marching band
            G D 
He said, "Son, when you grow up
       Em D G C  
Would you be the savior of the broken
      Bm Em Am   -   D   -   G 
The beaten and the damned?? 
 G D Em Bm C D  

*Verse 1*
      G D 
Sometimes I get the feeling
        Em C 
She's watching over me
      C G D 
And other times I feel like I should go
      G D 
And through it all, the rise and fall
      Em C 
The bodies in the streets
      C G D 
And when you're gone we want you all to know

*Chorus*
              G D Em 
We'll carry on, we'll carry on
    G C              
And though you're dead and gone, believe me
       D G D Em 
Your memory will carry on, we'll carry on
    G C         
And in my heart, I can't contain it
     D 
The anthem won't explain it

*Verse 2*
    

The Dead Flag Blues Tabs by Godspeed You Black Emperor V3

 This is a tab of basically the main riff to the song, there is another tab if you are
looking for the movement at around 10:10, here's the link: http://tabs.ultimate-
guitar.com/g/godspeed_you_black_emperor/the_dead_flag_blues_ver2_tab.htm


Artist:     Godspeed You! Black Emperor
Song:       The Dead Flag Blues
      F#A# (Infinity Symbol)
Tuning:     Standard
Tempo:      About 50 or so BPM

**TIMING IS NOT APPROXIMATE**

E|--------------------------------------------------------|
B|-----------6-----9-----6--------------6-----9-----6-----|
G|-----6--------6-----6-----6-----6--------6-----6-----6--|
D|--8-----8--------------------8-----8--------------------|
A|--------------------------------------------------------|
E|--------------------------------------------------------|
This riff repeats throughout most of the song.

Burnt Toast And Black Coffee chords – Shorty Long

 http://www.hillbilly-music.com/artists/story/index.php?id=12023

This is just the way i prefer to play it :) With power chords...Listen to the song 
for the rhythm, it's on YouTube. 

It's also been played by Mike Pedicin. I'm not sure who wrote it though. 

Intro: just mess around with the verse chords


Now let me tell you that
 Bb Db Eb F# 
I came home so late last night
 Bb Ab Eb F  
Looked but found no one in sight
 Bb Db Eb F# 
Guess that I'll investigate
 Bb 
Who's been keeping my baby out late

            Bb Db 
I'm eating burnt toast
               Eb Db 
and drinking black black coffee
          Bb     Dd
eating burnt toast 
               Eb Db 
and drinking black black coffee
          Bb Db 
eating burnt toast 
               Eb Db 
and drinking black black coffee
 Bb       (n/c)             Db 
that's all she left for me


 Bb Db Ebm F# 
breakfast lunch and dinner too
 Bb Ab Ebm F  
I used to sit across from you
 Bb Db Ebm F# 
but now I face an empty chair
 Bb 
you are gone and I wonder where


 Bb Db 
I'm eating burnt toast
               Eb Db 
and drinking black black coffee
          Bb     Dd
eating burnt toast 
               Eb Db 
and drinking black black coffee
          Bb Db 
eating burnt toast 
               Eb Db 
and drinking black black coffee
 Bb       (n/c)             Db 
that's all she left for me

Little Black Dress chords – One Direction

 No capo

 E 
Little black dress
Just walked into the room
Makin' heads turn
Can't stop looking at you
 A 
It's all right
It's all right
It's all right you know

 E 
Little black dress
Did you come here alone?
It's too late
It's too late
It's too late to go home
 A 
It's all right
It's all right
It's all right you know
It's all right
It's all right
It's all right you know

CHORUS:
 B A 
I wanna see the way you move for me baby
 B A 
I wanna see the way you move for me baby
 B A E 
I wanna see the way you move for me

 E 
Little black dress
Who you doin' it for?
Little black dress
I can't take anymore
 A 
It's not right
It's not right
It's not right you know

 E 
Little black dress
What's your favourite song?
Little black dress
I won't do you no harm

 A 
It's all right
It's all right
It's all right you know
It's all right
It's all right
Cause I'll take you home

CHORUS:
 B A 
I wanna see the way you move for me baby
 B A 
I wanna see the way you move for me baby
 B A 
I wanna see the way you move for me

[Guitar Break]  E A E A 

CHORUS X2

enjoy :)

Come Out Ye Black And Tans chords – Wolfe Tones

 Come Out Ye Black and Tans (Guitar: Capo x 3)  (Banjo: G-Modal)
       [ Am ]                              [ G ] 
I was born in a Dublin street where the loyal drums do beat
        [ Am ] 
And the loving English feet they tramped all over us
         [ C ]                          [ G ] 
And each day and every night when my father comes home tight
       [ Am ]                [ G ]              [ Am ] 
He'd invite the neighbors outside with this chorus

[chorus]
       [ Am ]                              [ G ] 
Oh come out ye Black and Tans, come out and fight me like a man
       [ Am ] 
Show your wives how you won medals down in Flanders
      [ C ]                          [ G ] 
Tell them how the IRA made you run like hell away
       [ Am ]                [ G ]              [ Am ] 
From the green and lovely lanes in Killeshandra


Come let me hear you tell how you've slung the brave Parnell
When you thought him well and truly persecuted
Where are your sneers and jeers that you loudly let us hear
When our heroes of '16 were executed

Alan Larkin and O`Brian held you strong and called you swine
Robert Emmett who you hung and drew and quartered
High upon the scaffold high, how you butchered Henry Joy
And the Croppy Boys of Wexford you did slaughter


Oh let me hear you slew them poor Arabs two by two
Like the Zulus they had spears and bows and arrows
How you bravely faced each one with your sixteen-pounder gun
And you've frightened them poor natives to their marrows

(additional verse)
Well the day is closing fast and the time will soon be past
When each dawning will be cast aside afore us
And if I be in need then me kids will say godspeed
With a bar or two of Stephen Behan`s chorus

Man In The Long Black Coat chords – Bob Dylan V2

 ---------------------------------------------------------------------------
                Man in the Long Black Coat - Bob Dylan
---------------------------------------------------------------------------
: maguri
Tuning: Standard

Bob Dylan
Man in the Long Black Coat (1989)
(Bob Dylan)
From: "Oh Mercy"


---------------------------------------------------------------------------

INTRO
|  F#m  | freely

time signature: 6/8 

|  F#m | % |
|  F#m A  |  E C#m  |  F#m A  |  E F#m |
|  F#m A  |  E C#m  |  F#m A  |3/4  E  |  F#m | % |
|  E  | % |  F#m A  |3/4  E  |  F#m | % |

 F#m A E C#m 
Crickets are chirpin’, the water is high
           F#m A E F#m 
There’s a soft cotton dress on the line hangin’ dry
 F#m A E C#m 
Window wide open, African trees
 F#m A E F#m 
Bent over backwards from a hurricane breeze
       E E 
Not a word of goodbye, not even a note
     F#m A  
She gone with the man
        E F#m 
In the long black coat

 F#m A E C#m 
Somebody seen him hanging around
        F#m A E F#m 
At the old dance hall on the outskirts of town
           F#m A E C#m 
He looked into her eyes when she stopped him to ask
       F#m A E F#m 
If he wanted to dance, he had a face like a mask
 E E 
Somebody said from the Bible he’d quote
           F#m A  
There was dust on the man
        E F#m 
In the long black coat

 F#m A E C#m 
Preacher was a talkin’, there’s a sermon he gave
         F#m A E F#m 
He said every man’s conscience is vile and depraved
     F#m A E C#m 
You cannot depend on it to be your guide
           F#m A E F#m 
When it’s you who must keep it satisfied
          E E 
It ain’t easy to swallow, it sticks in the throat
              F#m A  
She gave her heart to the man
        E F#m 
In the long black coat

       D A 
There are no mistakes in life some people say
       F#m E F#m 
It is true sometimes you can see it that way
     D A 
But people don't live or die, people just float
     F#m A  
She went with the man
        E F#m 
In the long black coat

         F#m A E C#m 
There’s smoke on the water, it’s been there since June
 F#m A E F#m 
Tree trunks uprooted, 'neath the high crescent moon
          F#m A E C#m 
Feel the pulse and vibration and the rumbling force
 F#m A E F#m 
Somebody is out there beating on a dead horse
     E E 
She never said nothing, there was nothing she wrote
     F#m</sp