Tag: blood

My Blood piano chords by twenty one pilots

[Verse 1]
Fm              Ab
   When everyone  you thought you knew,
Fm              Eb   Ab
   Deserts your fight, I'll go with you
Fm                   Ab
   You're facing down  a dark hall,
Fm              Eb   Ab
   I'll grab my light, and go with you


[Refrain]
Fm      Eb      Ab
   I'll go with you, I'll go with you
Fm      Eb      Ab
   I'll go with you, I'll go with you
Fm      Eb      Ab
   I'll go with you, I'll go with you
Fm      Eb      Ab
   I'll go with you


[Verse 2]
Fm    Eb      Ab
   Surrounded and up against a wall
Fm      Eb         Ab
   I'll shred them all and go with you
Fm      Eb      Ab
   When choices end, you must defend,
Fm      Eb      Ab
   I'll grab my bat and go with you


[Refrain]
Fm      Eb      Ab
   I'll go with you, I'll go with you
Fm      Eb      Ab
   I'll go with you, yeah


[Chorus]
Bbm         Ab Db
Stay with me,  no, you don't need to run
Fm          Eb   Ab
Stay with me, my blood, you don't need to run
Bbm         Ab Db
Stay with me,  no, you don't need to run
Fm          Eb   Ab
Stay with me, my blood, you don't need to run


[Verse 3]
Fm          Eb      Ab
   If there comes a day,

People posted up at the end of your driveway,
        Fm                                Eb               Ab
They're calling for your head and they're calling for your name,

I'll bomb down on them, I'm coming through
Fm                    Eb         Ab
   Do they know I was grown with you?

If they're here to smoke, know I'll go with you,
     Fm               Eb         Ab
Just keep it outside, keep it outside, yeah


[Chorus]
Bbm         Ab Db
Stay with me,  no, you don't need to run
Fm          Eb   Ab
Stay with me, my blood, you don't need to run
Bbm         Ab Db
Stay with me,  no, you don't need to run
Fm          Eb   Ab
Stay with me, my blood, you don't need to run


[Bridge]
Bbm   Ab   Db
             You don't need to run
Fm   Eb   Ab
            You don't need to run
Bbm   Ab   Db
             You don't need to run
Fm   Eb   Ab
            You don't need to run


[Verse 4]
Fm   Ab   Fm   Eb   Ab  (same as intro)

                    Fm
If you find yourself  in a lion's den,
Ab                   Fm            Eb
   I'll jump right in  and pull my pin,
Ab
   And go with you


[Refrain]
Bbm     Ab      Db
   I'll go with you, I'll go with you
Fm      Eb      Ab
   I'll go with you, I'll go with you (you don't need to run)
Bbm     Ab      Db
   I'll go with you, I'll go with you (you don't need to run)
Fm               Eb      Ab
  My blood, I'll go with you, yeah


[Chorus]
Bbm         Ab Db
Stay with me,  no, you don't need to run
Fm          Eb   Ab
Stay with me, my blood, you don't need to run
Bbm         Ab Db
Stay with me,  no, you don't need to run
Fm          Eb   Ab
Stay with me, my blood, you don't need to run


[Bridge]
Bbm   Ab   Db
             You don't need to run
Fm   Eb   Ab
            You don't need to run
Bbm   Ab   Db
             You don't need to run
Fm   Eb   Ab
            You don't need to run


[Outro]
Bbm         Ab Db
Stay with me,  no, you don't need to run
Fm          Eb   Ab
Stay with me, my blood

My Blood chords by twenty one pilots

[Intro] 
   Fm                Ab                    Fm      Eb    Ab
e|-1---------------|-4---------------|-----1-------3---|-4---------------|
B|-1---------------|-4---------------|-----1-------4---|-4---------------|
G|-1---------------|-5---------------|-----1-------3---|-5---------------|
D|-3---------------|-6---------------|-----3-------5---|-6---------------|
A|-3---------------|-6---------------|-----3-------6---|-6---------------|
E|-1---------------|-4---------------|-----1-------3---|-4---------------|
   ^ ' ^ ' ^ ' ^ ' | ^ ' ^ ' ^ ' ^ ' | ^ ' ^ ' ^ ' ^ ' | ^ ' ^ ' ^ ' ^ ' |
   1   2   3   4     1   2   3   4     1   2   3   4     1   2   3   4


[Verse 1]
Fm              Ab
   When everyone  you thought you knew,
Fm              Eb   Ab
   Deserts your fight, I'll go with you
Fm                   Ab
   You're facing down  a dark hall,
Fm              Eb   Ab
   I'll grab my light, and go with you


[Refrain]
Fm      Eb      Ab
   I'll go with you, I'll go with you
Fm      Eb      Ab
   I'll go with you, I'll go with you
Fm      Eb      Ab
   I'll go with you, I'll go with you
Fm      Eb      Ab
   I'll go with you


[Verse 2]
Fm    Eb      Ab
   Surrounded and up against a wall
Fm      Eb         Ab
   I'll shred them all and go with you
Fm      Eb      Ab
   When choices end, you must defend,
Fm      Eb      Ab
   I'll grab my bat and go with you


[Refrain]
Fm      Eb      Ab
   I'll go with you, I'll go with you
Fm      Eb      Ab
   I'll go with you, yeah


[Chorus]
Bbm         Ab Db
Stay with me,  no, you don't need to run
Fm          Eb   Ab
Stay with me, my blood, you don't need to run
Bbm         Ab Db
Stay with me,  no, you don't need to run
Fm          Eb   Ab
Stay with me, my blood, you don't need to run


[Verse 3]
Fm          Eb      Ab
   If there comes a day,

People posted up at the end of your driveway,
        Fm                                Eb               Ab
They're calling for your head and they're calling for your name,

I'll bomb down on them, I'm coming through
Fm                    Eb         Ab
   Do they know I was grown with you?

If they're here to smoke, know I'll go with you,
     Fm               Eb         Ab
Just keep it outside, keep it outside, yeah


[Chorus]
Bbm         Ab Db
Stay with me,  no, you don't need to run
Fm          Eb   Ab
Stay with me, my blood, you don't need to run
Bbm         Ab Db
Stay with me,  no, you don't need to run
Fm          Eb   Ab
Stay with me, my blood, you don't need to run


[Bridge]
Bbm   Ab   Db
             You don't need to run
Fm   Eb   Ab
            You don't need to run
Bbm   Ab   Db
             You don't need to run
Fm   Eb   Ab
            You don't need to run


[Verse 4]
Fm   Ab   Fm   Eb   Ab  (same as intro)

                    Fm
If you find yourself  in a lion's den,
Ab                   Fm            Eb
   I'll jump right in  and pull my pin,
Ab
   And go with you


[Refrain]
Bbm     Ab      Db
   I'll go with you, I'll go with you
Fm      Eb      Ab
   I'll go with you, I'll go with you (you don't need to run)
Bbm     Ab      Db
   I'll go with you, I'll go with you (you don't need to run)
Fm               Eb      Ab
  My blood, I'll go with you, yeah


[Chorus]
Bbm         Ab Db
Stay with me,  no, you don't need to run
Fm          Eb   Ab
Stay with me, my blood, you don't need to run
Bbm         Ab Db
Stay with me,  no, you don't need to run
Fm          Eb   Ab
Stay with me, my blood, you don't need to run


[Bridge]
Bbm   Ab   Db
             You don't need to run
Fm   Eb   Ab
            You don't need to run
Bbm   Ab   Db
             You don't need to run
Fm   Eb   Ab
            You don't need to run


[Outro]
Bbm         Ab Db
Stay with me,  no, you don't need to run
Fm          Eb   Ab
Stay with me, my blood

In My Blood chords by Shawn Mendes

Standard tuning. Corrections welcome.

  F     Bb    Dm    F
e|------6-----5-----1-----|
B|10----6-----6-----1-----|
G|10----7-----7-----2-----|
D|10----8-----7-----3-----|
A|8-----8-----5-----3-----|
E|------6-----------1-----|

[Intro]
  F                                Bb
e|--------------------------------|--------------------------------|
B|10------10------10------10------|--------------------------------|
G|--------------------------------|7-------7-------7-------7-------|
D|----10------10------10------10--|--------------------------------|
A|8-----8-8-----8-8-----8-8-----8-|----8-------8-------8-------8---|
E|--------------------------------|6-----6-6-----6-6-----6-6-----6-|

  Dm                               Bb
e|--------------------------------|--------------------------------|
B|--------------------------------|--------------------------------|
G|7-------7-------7-------7/9-----|7-------7-------7-------7-------|
D|----7-------7-------7-----------|--------------------------------|
A|5-----5-5-----5-5-----5---------|----8-------8-------8-------8---|
E|--------------------------------|6-----6-6-----6-6-----6-6-----6-|

F                      Bb
Help me, it's like the walls are caving in
    Dm
Sometimes I feel like giving up
    Bb                           F
But I just can't, it isn't in my blood


[Verse 1]
                                              Bb
Laying on the bathroom floor, feeling nothing

I'm overwhelmed and insecure
                  Dm
Give me something
                                    Bb
I could take to ease my mind slowly
                                  F
Just have a drink and you'll feel better
                                   Bb
Just take her home and you'll feel better
                             Dm
Keep telling me that it gets better
        Bb
Does it ever?


[Chorus]
F                      Bb
Help me, it's like the walls are caving in
    Dm
Sometimes I feel like giving up
   Bb
No medicine is strong enough
        F
Someone help me
    Bb
I'm crawling in my skin
    Dm
Sometimes I feel like giving up
    Bb                           F      Bb
But I just can't, it isn't in my blood
               Dm     Bb
It isn't in my blood


[Verse 2]
F                                              Bb
Looking through my phone again feeling anxious
                                      Dm
Afraid to be alone again, I hate this
                                         Bb
I'm trying to find a way to chill, can't breathe, oh
                             F
Is there somebody that could help me?


[Chorus]
              Bb
It's like the walls are caving in
    Dm
Sometimes I feel like giving up
   Bb
No medicine is strong enough
        F
Someone help me
    Bb
I'm crawling in my skin
    Dm
Sometimes I feel like giving up
    Bb                           F      Bb
But I just can't, it isn't in my blood
               Dm     Bb
It isn't in my blood


[Bridge]
                F
I need somebody now
                Bb
I need somebody now
                   Dm
Someone to help me out
                Bb
I need somebody now


[Outro]
F
Help me
              Bb
It's like the wall are caving in
    Dm
Sometimes I feel like giving up
    Bb                           F       Bb
But I just can't, it isn't in my blood
               Dm     Bb
It isn't in my blood
               F
It isn't in my blood
                Bb
I need somebody now
               Dm
It isn't in my blood
                Bb
I need somebody now
               F      Bb   Dm   Bb
It isn't in my blood

Blood Sweat And Tears acoustic chords by BTS

[Intro]
            Bm      A
nae pi ttam nunmul
            G
nae majimak chumeul
A           Bm   A
da gajyeoga ga~
G   A
ga~
            Bm      A
nae pi ttam nunmul
            G
nae chagaun sumeul
A           Bm   A
da gajyeoga ga
G   A
ga~
            Bm     A  G  A
nae pi ttam nunmul
Bm  A  G

[Rap 1]
    Bm      A
nae pi ttam nunmuldo
    G         A
nae mom maeum yeonghondo
      Bm                   A
neoui geosin geol jal algo isseo
      G
igeon nareul beolbatge hal jumun

[Rap 2]
             Bm
Peaches and cream
             A
Sweeter than sweet
          G
Chocolate cheeks
              A
And chocolate wings
          Bm                A
But neoui nalgaeneun akmaui geot
          G                A
neoui geu sweet apen bitter bitter

[Rap 3]
        Bm
Kiss me apado dwae
           A
eoseo nal joyeojwo
           G               A
deo isang apeul sudo eopge
         Bm                   A
Baby chwihaedo dwae ije neol deurikyeo
     G
mok gipsugi neoran wiseuki

[Pre-Chorus]
            Bm      A
nae pi ttam nunmul
            G
nae majimak chumeul
A           Bm   A
da gajyeoga ga~
G   A
ga~
            Bm      A
nae pi ttam nunmul
            G
nae chagaun sumeul
A           Bm   A
da gajyeoga ga
G
ga~

[Chorus 1]
                Bm     A
wonhae manhi manhi yah
       G   A
manhi manhi
                Bm     A
wonhae manhi manhi yah
        G
manhi manhi manhi manhi

[Chorus 2]
                Bm     A
wonhae manhi manhi yah
       G   A
manhi manhi
                Bm     A
wonhae manhi manhi yah
        G
manhi manhi manhi manhi

[Rap 4]
 Bm            A
apado dwae nal mukkeojwo
   G
naega domangchil su eopge
  Bm             A
kkwak jwigo nal heundeureojwo
   G
naega jeongsin mot charige

[Rap 5]
                Bm
Kiss me on the lips lips
        A
dulmanui bimil
        G
neoran gamoge jungdokdwae gipi
   Bm                  A
niga anin dareun saram seomgiji mothae
  G
almyeonseodo samkyeobeorin dogi deun seongbae

[Pre-Chorus]
            Bm      A
nae pi ttam nunmul
            G
nae majimak chumeul
A           Bm   A
da gajyeoga ga~
G   A
ga~
            Bm      A
nae pi ttam nunmul
            G
nae chagaun sumeul
A           Bm   A
da gajyeoga ga
G
ga~

[Chorus 1]
                Bm     A
wonhae manhi manhi yah
       G   A
manhi manhi
                Bm     A
wonhae manhi manhi yah
        G
manhi manhi manhi manhi

[Chorus 2]
                Bm     A
wonhae manhi manhi yah
       G   A
manhi manhi
                Bm     A
wonhae manhi manhi yah
        G
manhi manhi manhi manhi

[Bridge]
       Em                 Bm
nareul budeureopge jugyeojwo
      Em         A        Bm
neoui songillo nun gamgyeojwo
              Em
eochapi geobuhal sujocha eopseo
              D
deoneun domanggal sujocha eopseo
       G
niga neomu dalkomhae neomu dalkomhae
   A
neomu dalkomhaeseo

[Outro]
            Bm     A  G  A
nae pi ttam nunmul
Bm  A  G
            Bm     A  G  A
nae pi ttam nunmul
Bm  A  G

Blood Chords by Kendrick Lamar

[Intro: Taylor Swift]
‘Cause, baby, now we've got bad blood
You know it used to be mad love
So take a look what you've done
‘Cause, baby, now we've got bad blood, hey!

[Verse 1: Kendrick Lamar]
Bm                                   D
I can't take it back, look where I'm at
Bm                                D
We was OG like D.O.C., remember that?
Bm                             D
My TLC was quite OD, ID my facts
Bm                             D
Now POV of you and me, similar Iraq
Bm                           D      Bm              D         
I don't hate you, but I hate to critique, overrate you
Bm               D                 Bm             D
These beats of a dark heart, use basslines to replace you
Bm              D         Bm                D
Take time and erase you, love don't hear no more
Bm     
No, I don't fear no more
D
Better yet, respect ain't quite sincere no more

[Pre-Chorus: Taylor Swift]
Bm  G        D       
Oh, it's so sad to
Bm    G              D     
Think about the good times
A7
You and I

[Chorus: Taylor Swift]
Bm                              D
‘Cause, baby, now we've got bad blood
Bm                              D
You know it used to be mad love
Bm                              D
So take a look what you've done
Bm                              D
‘Cause, baby, now we've got bad blood, hey!
Bm              G
Now we've got problems
D                            A7
And I don't think we can solve 'em
Bm                      G
You made a really deep cut
D                               A7
And, baby, now we've got bad blood, hey!

[Verse 2: Kendrick Lamar]
Bm                                   D
Remember when you tried to write me off?
Bm                                    D                                 
Remember when you thought I'd take a loss?
                    Bm                                    
Don't you remember? You thought that I would need ya
 D                         Bm                               
Follow procedure, remember? Oh, wait, you got amnesia
D                    N.C.
It was my season for battle wounds
Battle scars, body bumped, bruised
Stabbed in the back; brimstone, fire jumping through
Bm                        D
Still, all my life, I got money and power
N.C.
And you gotta live with the bad blood now

[Pre-Chorus: Taylor Swift]
Bm  G        D       
Oh, it's so sad to
Bm    G              D     
Think about the good times
A7
You and I

[Chorus: Taylor Swift]
Bm                              D
‘Cause, baby, now we've got bad blood
Bm                              D
You know it used to be mad love
Bm                              D
So take a look what you've done
Bm                              D
‘Cause, baby, now we've got bad blood, hey!
Bm              G
Now we've got problems
D                            A7
And I don't think we can solve 'em
Bm                      G
You made a really deep cut
D                               A7
And, baby, now we've got bad blood, hey!

[Bridge: Taylor Swift + Kendrick Lamar]
Bm                   
Band-Aids don't fix bullet holes
G
You say sorry just for show
D
You live like that, you live with ghosts
A7
You forgive, you forget, but you never let it go
Bm
Band-Aids don't fix bullet holes
G
You say sorry just for show
D
If you live like that, you live with ghosts
A7
If you love like that, blood runs cold

[Chorus: Taylor Swift]
              Bm
‘Cause, baby, now we've got bad blood
              G
You know it used to be mad love
            D
So take a look what you've done
              A7
‘Cause, baby, now we've got bad blood, hey!
                Bm
Now we've got problems
             G
And I don't think we can solve 'em
            D
You made a really deep cut
            A7
And, baby, now we've got bad blood, hey!
               Bm
‘Cause, baby, now we've got bad blood
              G
You know it used to be mad love
           D
So take a look what you've done
                A7
‘Cause, baby, now we've got bad blood, hey!
                Bm
Now we've got problems
              G
And I don't think we can solve 'em
            D
You made a really deep cut
            A7  
And, baby, now we've got bad blood, hey!

There Is A Fountain Filled With Blood chords – Norton Hall Band

 There Is A Fountain

Verse 1
       G C G D 
There is a fountain filled with blood drawn from Immanuel's vein
     Em C G D G 
And sinners plunged beneath that flood lose all their guilty stains
      G C G D 
Lose all their guilty stains lose all their guilty stains
     Em C G D G 
And sinners plunged beneath that flood lose all their guilty stains

Verse 2
     G C G D 
The dying thief rejoiced to see that fountain in his day
     Em C G D G 
And there have I, though vile as he, washed all my sins away
        G C G D 
Washed all my sins away, washed all my sins away 
     Em C G D G 
And there have I, though vile as he, washed all my sins away
 
Verse 3
      G C G D 
Dear dying Lamb, thy precious blood shall never lose its power 
      Em C G D G 
Till all the ransomed church of God be saved, to sin no more 
    G C G D 
Be saved, to sin no more, be saved, to sin no more 
      Em C G D G 
Till all the ransomed church of God be saved, to sin no more

Verse 4
      G C G D 
E'er since, by faith, I saw the stream thy flowing wounds supply 
   Em C G D G 
Redeeming love has been my theme, and shall be till I die 
     G C G D 
And shall be till I die, and shall be till I die 
   Em C G D G 
Redeeming love has been my theme, and shall be till I die

Verse 5
      G C G D 
When this poor lisping stamm’ring tongue lies silent in the grave
      Em C G D G 
Then in a nobler sweeter song I’ll sing Thy pow’r to save
      G C G D 
I’ll sing Thy pow’r to save, I’ll sing Thy pow’r to save
      Em C G D G 
Then in a nobler, sweeter song, I’ll sing Thy pow’r to save

Kelly Kapowski Tabs – Moose Blood

 -------------------------------------------------------------------------------
                             Kelly Kapowski - Moose Blood
-------------------------------------------------------------------------------
: Eithan Hopkins

Tuning: Standard

Intro + Verse 
                'WOOO'
e|--000000000000--|---00000000000000000000000000000000000000000000000000000000000000000000000000000000---------|
B|--000000000000--|---00000000000000000000000000000000000000000000000000000000000000000000000000000000---------|
G|--888888888888--|---88888888888888888888888888888888888666666666666666666666666666666888888888888888---------|
D|--999999999999--|---99999999999999999999999999999999999777777777777777777777777777777999999999999999---2x----|
A|--999999999999--|---99999999999999999999999999999999999777777777777777777777777777777999999999999999---------|
E|--777777777777--|---77777777777777777777777777777777777555555555555555555555555555555777777777777777---------|


Chorus 

e|-000000000000000000000000000000000000000000-----|---xxxx----|
B|-000000000000000000000000000000000000000000-----|---xxxx----|
G|-999999999999999999999999999999999999999999-----|---xxxx----|
D|-999999999999999999999888888888888888888888--4x-|---xxxx----|
A|-777777777777777777777666666666666666666666-----|---xxxx----|
E|------------------------------------------------|---xxxx----|

Verse 2

e|--0000000000000000000000000000000000000000000000000000000000000000000000000000000000000000000000000000000----|
B|--7777777777777555555555555544444444447777777777777777555555555555555544444444444555555555555555444444444----|
G|----------------------------------------------------------------------------------------------------------2x-|
D|-------------------------------------------------------------------------------------------------------------|
A|-------------------------------------------------------------------------------------------------------------|
E|-------------------------------------------------------------------------------------------------------------|

Chorus 

e|-000000000000000000000000000000000000000000-----|---xxxx----|
B|-000000000000000000000000000000000000000000-----|---xxxx----|
G|-999999999999999999999999999999999999999999-----|---xxxx----|
D|-999999999999999999999888888888888888888888--4x-|---xxxx----|
A|-777777777777777777777666666666666666666666-----|---xxxx----|
E|------------------------------------------------|---xxxx----|

Bridge 
1:35

e|---------------------------------------------------------------------------|
B|---------------------------------------------------------------------------|
G|-----4-8-4---8-4---4-6-4---6-4---4-8-11---8-4---4-6-4---6-4----------------|
D|--4--------4-----2-------2-----4--------4-----2-------2------------4x------|
A|---------------------------------------------------------------------------|
E|---------------------------------------------------------------------------|

2:10 

e|------------------------------------------------------------------------------------------------------|
B|------------------------------------------------------------------------------------------------------|
G|------------------------------------------------------------------------------------------------------|
D|--9-9-9--9\7--9-9-9--9\7-11-11-11--11\7--9-9-9--9\7-9-9-9--9\7-9-9-9--9\7-11-11-11--11\7-9-9-9--9\7~--|
A|--9-9-9--9\7--9-9-9--9\7-11-11-11--11\7--9-9-9--9\7-9-9-9--9\7-9-9-9--9\7-11-11-11--11\7-9-9-9--9\7~--|
E|--7-7-7--7\5--7-7-7--7\5-9--9--9---9-\5--7-7-7--7\5-7-7-7--7\5-7-7-7--7\5-9--9--9---9-\5-7-7-7--7\5~--|


Outro

e|-----------------------------------|--------------|
B|-----------------------------------|--------------|
G|-----4-8-4---8-4---4-6-4---6-4-----|----8~--------|
D|--4--------4-----2-------2------2x-|--------------|
A|-----------------------------------|--------------|
E|-----------------------------------|--------------|


************************************

| /   slide up
| \   slide dow

Drawn To The Blood Tabs – Sufjan Stevens

 -------------------------------------------------------------------------------
             Sufjan Stevens - Drawn To The Blood         
-------------------------------------------------------------------------------
Tuning: Standard, but capo on 6 (tabbed relative to capo)

Sufjan does this upwards strumming all the time. I guess you can do whatever
you like.

Tab is based on a live performance, which may differ from studio version.

There are some open strings I didn't tab. The open strings are almost all in tune,
so just add them.

Intro
e|---------------------------------------------------------------------------|
B|---------------3--------------------3------1-------3-----------------------|
G|---------------2--------------------2------2-------2-----------------------|
D|-2------0------0------2------0------0------2-------0------2-------4--------|
A|-2-[x8]-2-[x4]---[x8]-3-[x4]-2-[x4]---[x8]-0-[x12]---[x4]-3-[x12]-5-[x4]---|
E|-0------2------2------3------3------2--------------2------3-------5--------|

I'm drawn to the blood... (same as intro, play twice)
e|---------------------------------------------------------------------------|
B|---------------3--------------------3------1-------3-----------------------|
G|---------------2--------------------2------2-------2-----------------------|
D|-2------0------0------2------0------0------2-------0------2-------4--------|
A|-2-[x8]-2-[x4]---[x8]-3-[x4]-2-[x4]---[x8]-0-[x12]---[x4]-3-[x12]-5-[x4]---|
E|-0------2------2------3------3------2--------------2------3-------5--------|

For my prayer has always been love
e|---------------------------------------------------------------------------|
B|---------------------------------------------------------------------------|
G|-4------5------------------------------------------------------------------|
D|-5------3------2------5------0---------------------------------------------|
A|-5-[x8]-3-[x8]-3-[x8]-7-[x4]-2-[x4]----------------------------------------|
E|-3------5------3------7------2---------------------------------------------|

What did I do to deserve this...
e|---------------------------------------------------------------------------|
B|---------------------------------------------------------------------------|
G|---------------------------------------------------------------------------|
D|-2------5------0------2----------------------------------------------------|
A|-3-[x8]-7-[x4]-2-[x4]-3-[x16]----------------------------------------------|
E|-3------7------2------3----------------------------------------------------|

Then repeat the last three bars. However, that last [332xxx] is played only 
8 times! 
End with:

now? How did this happen?
e|---------------------------------------------------------------------------|
B|-1------1------------------------------------------------------------------|
G|-2------0------2-----------------------------------------------------------|
D|-2------2------0-----------------------------------------------------------|
A|-0-[x8]-3-[x4]-0-[x4]------------------------------------------------------|
E|--------3------2-----------------------------------------------------------|

That's all.



************************************

| /   slide up
| \   slide down
| h   hammer-on
| p   pull-off
| ~   vibrato
| +   harmonic
| x   Mute note
| b   Bend
| pb  Pre-bend
| br  Bend release
| pbr Pre-bend release
| brb Bend release bend

************************************

Lord Summerisle chords – Blood Ceremony

 Intro:  F# E F#m E  x2


      F# E 
     Oh, how now?
                       B F#m 
     Harvest seeds in summer drown
                                        E 
     The first of May on the 'morrow's light
                             B F# 
     Yet Gods on high bring ancient night
                                  E 
     Autumn's frost and winter's bone
                              B F#m 
     Have come and gone with arid sun
                                   E 
     Will they dance with us this night?
                           B F# 
     The answer lies with Summerisle
 
     
      F# E F#m E  x2
     

      F# E 
     We'll sing to those whom we hold dear
                             B F#m 
     Of orchard tombs where death lies near
                                   E 
     Of barren earth and orphaned sun
                               B F# 
     Of crop-yields promised; still to come
                                   E 
     Will they dance with us this night?
                           B F#m 
     The answer lies with Summerisle


Beautiful The Blood chords – Fee Band V2

 This song is tabbed in a different key. I hope you like this version!

Standard tuning: (E, B, G, D, A, e)


INTRO:  Em D C G  (x2)

V1:
 Em D C G 
I never knew death could be so sweet
 Em D C G  
I never knew surrender could feel so free
 Em D C G  
I never seen such meekness in majesty
 Em D C G  
That the blood of Jesus was bled for me


PRE-CHORUS:
 G C D Em 
Now I sing freedom for all my days
  G C D Em 
It's only by the power of the cross I'm raised
      G C D 
The King of Glory rescued me


CHORUS:
       G C 
How beautiful the blood flow
       Em C  
How merciful the love shown
      G C  
The King of glory poured out
    Em C 
Victorious are we now

INSTRUMENTAL:  Em D C G  (x2)

V2:
 Em D C G 
Never knew through these nails would love unfold
 Em D C G 
And never knew these wounds would heal my soul
 Em D C G  
I've never seen such beauty and sorrow meet
  Em D C G 
The blood of Jesus was bled for me


PRE-CHORUS:
 G C D Em 
Now I sing freedom for all my days
  G C D Em 
It's only by the power of the cross I'm raised
      G C D 
The King of Glory rescued me


CHORUS:
       G C 
How beautiful the blood flow
       Em C  
How merciful the love shown
      G C  
The King of glory poured out
    Em C 
Victorious are we now


PRE-CHORUS:
 G C D Em 
Now I sing freedom for all my days
  G C D Em 
It's only by the power of the cross I'm raised
      G C D 
The King of Glory rescued me


CHORUS:
       G C 
How beautiful the blood flow
       Em C  
How merciful the love shown
      G C  
The King of glory poured out
    Em C 
Victorious are we now


BRIDGE:
  G 
How beautiful you are
  C 
How merciful you are
   Em 
How glorious you are
  C D G 
Christ our Savior  (x2)

Tears Of Blood Tabs – Ron Pope

 -------------------------------------------------------------------------------
                             SONG NAME - Band Name
-------------------------------------------------------------------------------
: bek96

Tuning: I find the best way to play this is with the Capo on the 2nd fret but only
covering the top 5 strings.This means, in the chorus where it says A/D, play it as 
a normal A chord in relation to the capo but add the open bottom string. The tab 
below shows this: the bracketed 2's represent the capo.

A/D:
e|----(2)----0---------|
B|----(2)----2---------|
G|----(2)----2---------|
D|----(2)----2---------|
A|----(2)----0---------|
E|-----------0---------|

However, it sounds alright if you just put the capo across all strings and play
a normal A chord if it's easier. :)

*************

D   D   D   D

Verse 1

D                             A
I could come by rail or baby, I could come by car
          Bm                                 G
I've been missing you in Houston 'neath that bar
          D                          A
Yeah, and I cannot remember all the reasons that you left
        Bm                               G
I know none of them rings true inside my heart

Verse 2

              D                         A
I bet you're drinking as you go, baby you're so full of holes
        Bm                                   G
I'm surprised the whiskey doesn't pour right out
          D                                       A
And I may not be your best choice, but I thought love could fill the void
        Bm                                  G           G   F#
If you need something that will not let you down

Chorus

         Bm         G           D
When the tide comes and wets the embers
        Bm      A/D       D
Of the fire you tried to keep
        Bm   G            D   A/C#  Bm
Just remember that I will wait for you
        D       A       D
These tears of blood I weep

Verse 3

      D                                A
It's looking like a storm out here on Highway 61
                Bm                            G
At least that's where we were before I fell asleep
       D                              A
Yeah, me and all the boys are living hard out on the road
        Bm                               G              G   F#
I know you don't care, just talking as I think

Chorus

         Bm         G           D
When the tide comes and wets the embers
        Bm      A/D       D
Of the fire you tried to keep
        Bm   G            D   A/C#  Bm
Just remember that I will wait for you
        D       A       D       D
These tears of blood I weep

Bridge

    G         A        D
If you could teach me how
        G        A      D
I swear I'd stay on the ground
        G        A
I just feel like I am
D  A/C#  Bm
Falling down

Verse 4

     D                                A
When time has washed away all of the emptiness and pain
    Bm                                      G
The parts the booze and pills just couldn't kill
          D                                A
Hope you turn and come back home, I'll be waiting here alone
          Bm                              G             G   F#
'Cause I swear to God, I know I love you still

Chorus

         Bm         G           D
When the tide comes and wets the embers
        Bm      A/D       D
Of the fire you tried to keep
        Bm   G            D    A/C#   Bm
Just remember that I will wait for you
        D       A       D
These tears of blood I weep
         Bm         G           D
When the tide comes and wets the embers
        Bm      A/D       D
Of the fire you tried to keep
        Bm   G            D    A/C#   Bm
Just remember that I will wait for you
        D       A       Bm  A/C#  D  A
These tears of blood I weep
        G       A       D
These tears of blood I weep

Comrade Spill My Blood chords – Editors

 Comrade Spill My Blood

Verse:
 G Em D 
I don't wanna go quietly, I don't wanna tread softly, I'm a dog with a scent
I saw the stairhead, Faces of the crowd, I did not see the event
Sincerity and subtlety, Will I miss my son
Comrade spill my blood, Comrade spill my blood, We fight a war that can be won

Chorus:
 G D Em Bm C 
Soul, lives on, silence
Soul, lives on, silence

Verse:
 G Em D 
I don't wanna go quietly, I don't wanna tread softly, I'm a dog with a scent
I saw the stairhead, Faces of the crowd, I did not see the event
Sincerity and subtlety, Will I miss my son
Comrade spill my blood, Comrade spill my blood, We fight a war that can be won

Chorus

Bridge (Instrumental):
 Em C  (2x)
G Em D(2x)

Chorus

Outro:
 G D Em Bm C  
Soul, lives on, silence
Now soul, lives on, silence
Now soul, lives on, silence
Now soul, lives on, silence

Enjoy!

Feedback Blood And Distortion Tabs – Toxic Holocaust

                                      Feedback, Blood And Distortion

                                            Toxic Holocaust

Intro:


D||----------------------------------|----------------------------------|
A||----------------------------------|----------------------------------|
F||----------------------------------|----------------------------------|
C||----------------------------------|----------------------------------|
G||-3--3-3-3-3-3-3-3-3-3-6/5---8/6---|-3--3-3-3-3-3-3-3-3-3-6/5---8/6---|
D||-1--1-1-1-1-1-1-1-1-1-4/3-0-6/4-0-|-1--1-1-1-1-1-1-1-1-1-4/3-0-6/4-0-|
       * * * * * * * * *     *     *      * * * * * * * * *     *     *

                                x3
----------------------------------|
----------------------------------|
----------------------------------|
----------------------------------|
-3--3-3-3-3-3-3-3-3-3-6/5---8/6---|
-1--1-1-1-1-1-1-1-1-1-4/3-0-6/4-0-|
    * * * * * * * * *     *     *


D||------------------------------------||
A||------------------------------------||
F||------------------------------------||
C||------------------------------------||
G||-3--3-3-3-3-3-3-3-3-3-6/5---8/6---3-||
D||-1--1-1-1-1-1-1-1-1-1-4/3-0-6/4-0-1-||
       * * * * * * * * *     *     *

Riff 1:

                          x3
||-------------------------||----------------||
||-------------------------||----------------||
||-------------------------||----------------||
||-6-5-3-5-----------------||-/8-8-8---------||
||-4-3-1-3-3-3-3-3-3-3-3-3-||-/6-6-6-6-6--6--||
||-------------------------||--------4-4--4--||
           * * * * * * * *

                          x3
||-------------------------||---------------||
||-------------------------||---------------||
||-------------------------||---------------||
||-6-5-3-5-----------------||-/8-8-8--------||
||-4-3-1-3-3-3-3-3-3-3-3-3-||-/6-6-6-6-6-6--||
||-------------------------||--------4-4-4--||
           * * * * * * * *

Riff 2:


||-----------------------------------|
||-----------------------------------|
||-----------------------------------|
||------------------------------8----|
||-5-5-5-5-5-5-5-5-5-5-5-5-5-/8-6----|
||-3-3-3-3-3-3-3-3-3-3-3-3-3-/6------|
A burst of confusion rocks your mind

||-----------------------------------|
||-----------------------------------|
||-----------------------------------|
||------------------------------8----|
||-5-5-5-5-5-5-5-5-5-5-5-5-5-/8-6----|
||-3-3-3-3-3-3-3-3-3-3-3-3-3-/6------|
 As the shadows from the warhead fills the sky

||------------------------------------------------------|
||------------------------------------------------------|
||------------------------------------------------------|
||----------------------------------------------------8-|
||-5-------------5-------------5-------------5-----/8-6-|
||-3-3-3-3-3-3-3-3-3-3-3-3-3-3-3-3-3-3-3-3-3-3-3-3-/6---|
     * * * * * *   * * * * * *   * * * * * *   * *
   Endless rioting of the masses
     as we heed Satan's call

|-------------------------------------------|
|-------------------------------------------|
|-------------------------------------------|
|-------------------------------------------|
|-5-------------5-------------/8-8-8-6-6-6--|
|-3-3-3-3-3-3-3-3-3-3-3-3-3-3-/6-6-6-4-4-4--|
    * * * * * *   * * * * * *
   as we fan the flames higher
    and disintegrate you all.
 
Riff 1:

                          x3
||-------------------------||---------------||
||-------------------------||---------------||
||-------------------------||---------------||
||-6-5-3-5-----------------||-/8-8-8--------||
||-4-3-1-3-3-3-3-3-3-3-3-3-||-/6-6-6-6-6-6--||
||-------------------------||--------4-4-4--||
           * * * * * * * *

                          x3
||-------------------------||---------------||
||-------------------------||---------------||
||-------------------------||---------------||
||-6-5-3-5-----------------||-/8-8-8--------||
||-4-3-1-3-3-3-3-3-3-3-3-3-||-/6-6-6-6-6-6--||
||-------------------------||--------4-4-4--||
           *

One Trick Pony Tabs – Royal Blood

 -------------------------------------------------------------------------------
         ONE TRICK PONY (Ten Tonne Skeleton Single B Side) - Royal Blood
-------------------------------------------------------------------------------
: Shaun
shaunus123@hotmail.com

Tuning:Drop D tuning, as per usual with Royal Blood this is originally played on bass guitar but with octave 
pedals and others. I've instead tabbed it out as a standard guitar with the 'correct' octaves for certain notes
:)
    Lightly distorted/played
 
Intro:  
 
    Let ring ----------------------------------------------------------------|
e|---------------------------------------------------------------------------|
B|---------------------------------------------------------------------------|
G|------12\------------5-3/-----7\5/7---5\3/5---3p2p0-/5\-/3\0---------------|Feedback into 
D|----12\--------5\3-0--------------------------------/5\-/3\0---------------|   next part
A|---------------------------------------------------------------------------|
D|---------------------------------------------------------------------------|
     
    Heavily distorted/played

Main Riff:

e|---------------------------------------------------------------------------|
B|---------------------------------------------------------------------------|
G|-------12\10/12-----12\10/12\10-----12\10/12-----121214b-------------------|
D|---5-5----------5-5-------------5-5----------5-5---------------------------|     x2
A|---5-5----------5-5-------------5-5----------5-5---------------------------|
D|---5-5----------5-5-------------5-5----------5-5---------------------------|

Verse 1:
                     (10s)
e|---------------------------------------------------------------------------|
B|---------------------------------------------------------------------------|
G|----------------------------15b--------------------------------------------|
D|---10-1010---8---10-10101010--------10-1010---8---10-1010101010/11\10\8----|
A|---10-1010---8---10-10101010--------10-1010---8---10-1010101010/11\10\8----|
D|---10-1010---8---10-10101010--------10-1010---8---10-1010101010/11\10\8----|

e|---------------------------------------------------------------------------|
B|---------------------------------------------------------------------------|
G|---------------------------------------------------------------------------|
D|---5-55---8---5-5555--xxxx---5-55---8---5-5558p55--------------------------|
A|---5-55---8---5-5555--xxxx---5-55---8---5-5558p55--------------------------|
D|---5-55---8---5-5555--xxxx---5-55---8---5-5558p55--------------------------|

e|---------------------------------------------------------------------------|
B|---------------------------------------------------------------------------|
G|----------------------------15b--------------------------------------------|
D|---10-1010---8---10-10101010--------10-1010---8---10-1010101010/11\10\8----|
A|---10-1010---8---10-10101010--------10-1010---8---10-1010101010/11\10\8----|
D|---10-1010---8---10-10101010--------10-1010---8---10-1010101010/11\10\8----|

e|---------------------------------------------------------------------------|
B|---------------------------------------------------------------------------|
G|---------------------------------------------------------------------------|
D|---5-55---8---5-5555---------5-55---8---5-5558p55--------------------------|
A|---5-55---8---5-5555---------5-55---8---5-5558p55--------------------------|
D|---5-55---8---5-5555---------5-55---8---5-5558p55--------------------------|

Chorus 1:

e|---------------------------------------------------------------------------|
B|---------------------------------------------------------------------------|
G|---------------------------------------------------------------------------|
D|---------------------------------------------------------------------------|
A|----------------------------------------------------------------------

Nintendo Blood chords – Julian Casablancas The Voidz

 This is how I play the song. Suggestions welcome!


 G G F C C  x2

 G F C 
Her eyes were black and white and blue
 G F C 
I listen to your favorite songs backwards
 G F C G 
Do you have a plan for who to surrender to?
 F C 
I’ve been training for you…

                C 
It won’t stop now

 Am G C 
Imprisoned us in a song
 Am Bm C 
Asleep in the dead of wrong
 Am G C 
No return beyond this point
 Am Bm 
In theory

 G F C 
Ooooo
 G F C 
Will you drift into that dark war-path,
 G F C 
When the blood runs down their face sideways?
 G F C G 
As the party stays in the city forever, it seems
                   F 
Like ugly hippy neon art

 C G G F C 
We let the schoolboys in your eyes run out
 G F C 
When you asked me to blow smoke in your mouth
 G F C 
Like anybody the gloves I find I try
 G F C 
Can you think back to that time?

 C G F  x4

 C G F 
I was so angry I got up and out of bed
 C G F 
I spent 25 minutes reading what you said
 C G F 
A face I know so well, I’ve memorized your teeth
 C G F C 
I’ve worked so hard I haven’t looked at you in weeks... ooh

 G F 
Not gonna give a thought
                        C 
Not gonna give him my head
                     G 
Not gonna give a thought

Not gonna take it 
 F 
I'm not gonna take it, no
 C 
I'm not gonna give it

 G F C 
Will you solve your problems in the day-light?
 G F C 
They like to change the rules as they go
 G F C 
By chapter 2 he got killed by the author
 G F       
Momma won’t let me out

 C G G F C 
Take me in your android arms mom-Jeanette
 G F C 
Made up of every lonely person you’ve met
 G F C 
Of every pretty stranger you’ll never regret —
          G F C 
I can’t help it, it’s not my fault, gotta be possessive
                   G F C 
Each man for his own, arm in arm in arms

 C Am G C 
Imprisoned us in a song
 Am Bm C 
Asleep in the dead of wrong
 Am G C 
Motha-f. Don’t page me tonite
 Am Bm 
Don’t stop, react, attack.

 C G F  x4

   C G 
“When man has conquered the earth he will have destroyed himself
               F C     
His appetite will devour the earth and leave behind only a desert
              G F 
The end of living & the beginning of surviving,
 C 
Our land, our brother we treat like an enemy
 G F C 
But “when man has conquered the earth he will have dest

Loose Change Tabs – Royal Blood

 Tuning:DADGBe

This song is probably actually played in standard tuning, however it is possible to play in drop D which I 
find convenient because a few other Royal Blood songs are in drop D and it means you don't have to change
tuning if you learn to play it the song in drop D.
If you'd prefer to learn it in standard tuning I'd recommend checking out the bass tab: 
(http://tabs.ultimate-guitar.com/r/royal_blood/loose_change_btab.htm)
and playing that on a 6-string.


Intro 

e|------------------------------------------------------------------|
B|------------------------------------------------------------------|
G|------------------------------------------------------------------|
D|--------------------11---9----------------------------------------|
A|----------------7-9--------11-7--9---9--------12-12-12-12-11-11---|
D|-11--11------11-------------------------------------------------7-|

e|------------------------------------------------------------------|
B|------------------------------------------------------------------|
G|------------------------------------------------------------------|
D|--------------------11---9----------------------------------------|
A|----------------7-9--------11-7--9---9--------12-12-12-12-11-11---|
D|-11--11------11-------------------------------------------------7-|

First Verse

e|------------------------------------------------------------------|
B|------------------------------------------------------------------|
G|------------------------------------------------------------------|
D|--------------------11---9----------------------------------------|
A|----------------7-9--------11-7--9---9--------12-12-12-12-11-11---|
D|-11--11------11-------------------------------------------------7-|

e|------------------------------------------------------------------|
B|------------------------------------------------------------------|
G|------------------------------------------------------------------|
D|--------------------11---9----------------------------------------|
A|----------------7-9--------11-7--9---9--------12-12-12-12-11-11---|
D|-11--11------11-------------------------------------------------7-|

e|------------------------------------------------------------------|
B|------------------------------------------------------------------|
G|------------------------------------------------------------------|
D|--------------------11---9----------------------------------------|
A|----------------7-9--------11-7--9---9--------12-12-12-12-11-11---|
D|-11--11------11-------------------------------------------------7-|

e|------------------------------------------------------------------|
B|------------------------------------------------------------------|
G|------------------------------------------------------------------|
D|--------------------11---9----------------------------------------|
A|----------------7-9--------11-7--9---9--------12-12-12-12-11-11---|
D|-11--11------11-------------------------------------------------7-|

e|-----------------------------------------|
B|-----------------------------------------|
G|-----------------------------------------|
D|-----------------------------------------|
A|-12----------------14--------------------|
D|-----------------------------------------|


e|------------------------------------------------------------------|
B|------------------------------------------------------------------|
G|------------------------------------------------------------------|
D|--------------------11---9----------------------------------------|
A|----------------7-9--------11-7--9---9--------12-12-12-12-11-11---|
D|-11--11------11-------------------------------------------------7-|

e|-----------------------------------------------------------|
B|-----------------------------------------------------------|
G|-----------------------------------------------------------|
D|--------------------11--14-13------------------------------|
A|----------------7-9------

No Blood No Foul Tabs – With The Punches

 ------------------------------------------------------------------------------- 
                             No Blood, No Foul - With the Punches 
------------------------------------------------------------------------------- 
 
This is pretty much for the Rhythm Guitar.  I tried to show the strum patterns as best as possible,
but it's much easier to base your rhythm off of the song. 
 
Tuning: 
Full Step Down 
 
Intro
d|--------------------------------------------------------------------------------------|
A|--------------------------------------------------------------------------------------|
F|--9--9-------------------9--9--2---2-2-2-2-2-2--9--9-------------------6--4--2--2-2-2-|x2
C|--9--9--2---2-2-2-2-2-2--9--9--2---2-2-2-2-2-2--9--9--2---2-2-2-2-2-2--6--4--2--2-2-2-|
G|--7--7--2---2-2-2-2-2-2--7--7--0---0-0-0-0-0-0--7--7--2---2-2-2-2-2-2--4--2--0--0-0-0-|
D|--------0---0-0-0-0-0-0-------------------------------0---0-0-0-0-0-0-----------------|
 
Verse 1
d|-----------------------------------------------------------|
A|-----------------------------------------------------------|
F|----------------2-2--2-2-2-2----------------6--4--2--2-2-2-|
C|--2-2--2-2-2-2--2-2--2-2-2-2--2-2--2-2-2-2--6--4--2--2-2-2-|
G|--2-2--2-2-2-2--0-0--0-0-0-0--2-2--2-2-2-2--4--2--0--0-0-0-|
D|--0-0--0-0-0-0----------------0-0--0-0-0-0-----------------|
 
d|-----------------------------------------------------------|
A|-----------------------------------------------------------|
F|----------------2-2--2-2-2-2----------------6--------------|
C|--2-2--2-2-2-2--2-2--2-2-2-2--2-2--2-2-2-2--6--4--6--6-6-6-|
G|--2-2--2-2-2-2--0-0--0-0-0-0--2-2--2-2-2-2--4--4--6--6-6-6-|
D|--0-0--0-0-0-0----------------0-0--0-0-0-0-----2--4--4-4-4-|
 
Pre-Chorus
d|---------------------------|--------------------------|
A|---------------------------|--------------------------|
F|--2-2--2-2-2--2-4-4--4-6-6-|-2-2--2-2-2--2-4-4--4-4-4-|X2
C|--0-0--0-0-0--0-2-2--2-4-4-|-2-2--2-2-2--2-4-4--4-4-4-|
G|--0-0--0-0-0--0-2-2--2-4-4-|-0-0--0-0-0--0-2-2--2-2-2-|
D|---------------------------|--------------------------|
 
Chorus
d|---------------------------------------------------------|
A|---------------------------------------------------------|
F|----------------2-2--2-2-2-2----------------6-6--4-4-4-4-|x2
C|--2-2--2-2-2-2--2-2--2-2-2-2--2-2--2-2-2-2--6-4--4-4-4-4-|
G|--2-2--2-2-2-2--0-0--0-0-0-0--2-2--2-2-2-2--4-4--2-2-2-2-|
D|--0-0--0-0-0-0----------------0-0--0-0-0-0---------------|
 
Post-Chorus
d|-------------------------------------------------------------------------|
A|-------------------------------------------------------------------------|
F|-------------------------------------------------------------------------|
C|--2-2--2-2--4-4--4-4--6-6--6-6--7-7--7-7----2-2--2-2--4-4--4-4--6-6--6-6-|
G|--2-2--2-2--4-4--4-4--6-6--6-6--7-7--7-7----2-2--2-2--4-4--4-4--6-6--6-6-|
D|--0-0--0-0--2-2--2-2--4-4--4-4--5-5--5-5----0-0--0-0--2-2--2-2--4-4--4-4-|
 
Verse 2  (let first not ring out)
d|-----------------------------------------------------------|
A|-----------------------------------------------------------|
F|--------------------------------------------6--4--2--2-2-2-|
C|--2-----------------------------------------6--4--2--2-2-2-|
G|--2-----------------------------------------4--2--0--0-0-0-|
D|--0--------------------------------------------------------|
 
d|-----------------------------------------------------------|
A|-----------------------------------------------------------|
F|--------------------------------------------6--------------|
C|--2-----------------------------------------6--4--6--6-6-6-|
G|--2-----------------------------------------4--4--6--6-6-6-|
D|--0--------------------------------------------2--4--4-4-4-|
 
The rest of the song goes in this format. 
 
Pre-Chorus 
 
Chorus 
 
Intro 
 
Chorus 
 
Post-Chorus 
 

Bad Blood chords – Taylor Swift

 Bad Blood by Taylor Swift
 1989
Track 8
2014


Standard Tuning
Capo on the 7th fret


Chords:

F:      x33211 or 133211
C:      x32010
G:      320003 or 320033
Am:     x02210

(To play without a capo replace the chords above by C, G, D and Em)


 Intro:
              F C 
 Cause baby now we got bad blood
              G Am 
 You know it used to be mad love
              F C 
 So take a look at what you've done
              G Am 
 Cause baby now we got bad blood, hey!
   F C 
 Now we got problems
                G Am 
 And I don't think we can solve them
               F C 
 You made a really deep cut
            G Am 
 And baby now we got bad blood, hey!


 Verse:
   F C 
 Did you have to do this?
  G Am 
 I was thinking that you could be trusted
   F C G Am 
 Did you have to ruin what was shining now it's all rusted
   F C G Am 
 Did you have to hit me? where I'm weak baby I couldn't breathe
     F C 
 I rubbed it in so deep
   G Am 
 Salt in the wound like you're laughing right at me


 Pre-Chorus:
 F C G Am F 
 Oh, it's so sad to think about the good times
   C G 
 You and I


 Chorus:
              F C 
 Cause baby now we got bad blood
              G Am 
 You know it used to be mad love
              F C 
 So take a look at what you've done
              G Am 
 Cause baby now we got bad blood, hey!
   F C 
 Now we got problems
                G Am 
 And I don't think we can solve them
               F C 
 You made a really deep cut
            G Am 
 And baby now we got bad blood, hey!


 Verse:
   F C 
 Did you think we'd be fine?
    G Am 
 Still got scars on my back from your knife
      F C 
 So don't think it's in the past
    G Am 
 These kind of wounds they last and they last
       F C 
 Now did you think it all through?
  G Am 
 All these things will catch up to you
       F C 
 And time can heal but this won't
      G Am 
 So if you come in my way, just don't


 Pre-Chorus:
 F C G Am F 
 Oh, it's so sad to think about the good times
   C G 
 You and I


 Chorus:
              F C 
 Cause baby now we got bad blood
              G Am 
 You know it used to be mad love
              F C 
 So take a look at what you've done
              G Am 
 Cause baby now we got bad blood, hey!
   F C 
 Now we got problems
                G Am 
 And I don't think we can solve them
               F C 
 You made a really deep cut
            G Am 
 And baby now we got bad blood, hey!


 Bridge:
   F C 
 Band-aids don't fix bullet holes
   G Am 
 You say sorry just for show
          F C G Am 
 If you live like that, you live with ghosts
   F C 
 Band-aids don't fix bullet holes
    G</

Blood Like Cream Tabs by Red Fang

 -----------------------------------------------------------------------------
                           BLOOD LIKE CREAM - Red Fang
-----------------------------------------------------------------------------
: Owen556
ogriff56

Tuning:D(although the band plays it in drop D, I prefer standard)

Intro
e|--------------------------------------------------------------------------|
B|--------------------------------------------------------------------------|
G|--------------------------------------------------------------------------|
D|--7--4--7/9\7--4--7--4---7/9\7--4--7--4-----------------------------------|
A|--7--4--7/9\7--4--7--4---7/9\7--4--7--4-----------------------------------|
D|--7--4--7/9\7--4--7--4---7/9\7--4--7--4-----------------------------------|

Verse
e|--------------------------------------------------------------------------|
B|--------------------------------------------------------------------------|
G|--------------------------------------------------------------------------|
D|---7--4-4-4-4-4---4-2-4-4-4-4---7-7-4-7-4--4-4-4-4--4-2-4-4-4-4-----------|
A|---7--4-4-4-4-4---4-2-4-4-4-4---7-7-4-7-4--4-4-4-4--4-2-4-4-4-4-----------|
D|---7--4-4-4-4-4---4-2-4-4-4-4---7-7-4-7-4--4-4-4-4--4-2-4-4-4-4-----------|

e|--------------------------------------------------------------------------|
B|--------------------------------------------------------------------------|
G|--------------------------------------------------------------------------|
D|---7-7-4-7---3-3-3-3-3---2-3-3-3-3--7-7-4-7-4-4-4-4-4---------4---4-------|
A|---7-7-4-7---3-3-3-3-3---2-3-3-3-3--7-7-4-7-4-4-4-4-4---2-3-4---4---4-----|
D|---7-7-4-7---3-3-3-3-3---2-3-3-3-3--7-7-4-7-4-4-4-4-4---------------------|

                           alternate ending to verse (chromatic down from A)
e|--------------------------------------------------------------------------|
B|--------------------------------------------------------------------------|
G|--------------------------------------------------------------------------|
D|--------------------------------------------------------------------------|
A|-------------------------------------------------------12-11-10-9/--------|
D|--------------------------------------------------------------------------|


Chorus
e|--------------------------------------------------------------------------|
B|--------------------------------------------------------------------------|
G|-----------------------------2--------------------------------------------|
D|--4-2-4--4-2-4--4-2-4-----4--2--4-----------------------------------------|
A|--4-2-4--4-2-4--4-2-4-----4--0--4-----------------------------------------|
D|--4-2-4--4-2-4--4-2-4-----4-----4-----------------------------------------|

e|--------------------------------------------------------------------------|
B|--------------------------------------------------------------------------|
G|-----------------------------2--------------------------------------------|
D|--4-2-4--4-2-4--4-2-4-----4--2----4-4-3-3-5-5-4-4-6-6-6-6-7-7-7-7---------|
A|--4-2-4--4-2-4--4-2-4-----4--0----4-4-3-3-5-5-4-4-6-6-6-6-7-7-7-7---------|
D|--4-2-4--4-2-4--4-2-4-----4-------4-4-3-3-5-5-4-4-6-6-6-6-7-7-7-7---------|





e|--------------------------------------------------------------------------|
B|------------7-7--6-6--8-8--7-7--9-9-9-9--10-10-10-10----------------------|
G|------------X-X--X-X--X-X--X-X--X-X-X-X--X--X--X--X-----------------------|
D|------------4-4--3-3--5-5--4-4--6-6-6-6--7--7--7--7-----------------------|
A|--------------------------------------------------------------------------|
D|--------------------------------------------------------------------------|

Solo 1
e|-----99999999----------------------------|---------------------|----------|
B|-------------12-12-12-12-----------------|---------------------|----------|
G|--------------------------12-12-11-11----|--11-11-

Shred Or Die Kill Em With The Beat Tabs by Dog Blood

 It's played in Drop D, and (obviously) has a metal / any heavy distortion effect


For first part, it's

e|--------------------------------------|
B|--------------------------------------|
G|--------------------------------------|
D|-0-1-0-1--xxx0-1-0-1-1-0-1-1-1-|  x12-|
A|-0-1-0-1--xxx0-1-0-1-1-0-1-1-1--------|
D|-0-1-0-1--xxx0-1-0-1-1-0-1-1-1--------|

Repeat until the rise synth thing comes in, and then play this


e|-------------------------------------|
B|-------------------------------------|
G|-------------------------------------|
 D|-0-1-0-1-12--xxx0-1-0-1-1-0-1-1-1---|
A|-0-1-0-1--12--xxx0-1-0-1-1-0-1-1-1---|
D|-0-1-0-1--12--xxx0-1-0-1-1-0-1-1-1---|

until the breakdown, and then it goes like this

e|-------------------------|
B|-------------------------|
G|-------------------------|
D|-0-0-3-1-xxxx-0-3-1------|
A|-0-0-3-1-xxxx-0-3-1------|
D|-0-0-3-1-xxxx-0-3-1------|

and then after, it goes:

e|-------------------------|
B|-------------------------|
G|-------------------------|
D|-0-0-3-1-xxxx-0-3-1------|
A|-0-0-3-1-xxxx-0-3-1------| x2
D|-0-0-3-1-xxxx-0-3-1------|


e|----------------------------|
B|----------------------------|
G|----------------------------|
D|-0-0-3-1-xxxx-0-3-3-12-11---|
A|-0-0-3-1-xxxx-0-3-3-12-11---|
D|-0-0-3-1-xxxx-0-3-3-12-11---|

and that's basically it. Hope you all like. And I'm sorry about the formatting, as this 
is my first tab. Please leave comments on how it sounds, and if you'd like to make any 
changes! Thanks!

Here's their soundcloud (Dog blood is Skrillex and Boys Noize)

https://soundcloud.com/dogblood