Tag: blue

Sky Stays This Blue chords by Dallas Smith

[Intro]
G D Bm G

[Verse]
D
Right now in this moment
                       G        D
It looks like you'll never stop smiling
G    D
You don't even know it but I'm living off of
                 G
The wild in your eyes and it's like
     D                         G
Your posin' for pictures I'll frame in my mind
         D                   Bm           G
You're dancin' to music in three quarter time

[Chorus]
D
I hope your sky stays this blue
Bm                         G
Hope your heart stays this red
D
Hope your road stays this golden
Bm              G
Your sun never sets
          D
Hope your high never crashes
Bm                       G
And time won't change you
D
Hope you never stop laughing
         Bm              G    D   Bm G   D Bm G
And your sky stays this blue forever, forever

D               F#m         Bm
They say that what doesn't kill you
Em              D           F#m Bm G
Just makes you stronger
    D
But I hope when you cry that you don't cry
G            D     A         Bm
One second longer than you have to
G          D                       Bm             G
Cause when you love somebody it's more than just surface
     D                                            G
You fly when they flyin' and you hurt when they hurt

[Chorus]
D
I hope your sky stays this blue
Bm                         G
Hope your heart stays this red
D
Hope your road stays this golden
Bm              G
Your sun never sets
          D
Hope your high never crashes
Bm                       G
And time won't change you
D
Hope you never stop laughing
         Bm              G    D   Bm G   D Bm G
And your sky stays this blue forever, forever

[Bridge]
           D
I hope the sun always shines and you never see the gray
              D       Bm    D
I hope that love is always kind, and it never fades away

[Chorus]
D
I hope your sky stays this blue
Bm                         G
Hope your heart stays this red
D
Hope your road stays this golden
Bm              G
Your sun never sets
          D
Hope your high never crashes
Bm                       G
And time won't change you
D
Hope you never stop laughing
         Bm              G    D   Bm G   D Bm G
And your sky stays this blue forever, forever

[Outro]
                            D
Your sky stays this blue forever

Blue Memories chords – Patty Loveless

 Patty Loveless - Blue Memories


CAPO: 1st Fret



INTRO:  D G D A D A D 


When I close my eyes I almost see
     A D 
The way you looked when you were standing next to me

And I still feel you holding me tight
     F 
Oh, I can hear the laughter
     A D 
And all the words you whispered in the night


CHORUS:
 G 
Picture this and paint it blue
   D 
A photograph of me and you
 G 
Smile has faded with the years
 A 
Washed away by all the tears
     G A D G D A D 
And when I look, all I see are blue memories



Oh, how I remember the time
           A D 
There was love in your heart and that love was mine

If I could turn it all 'round again
 F 
We'd be lying side by side
     A D 
And things would be the way they were back then


CHORUS:
 G 
Picture this and paint it blue
   D 
A photograph of me and you
 G 
Smile has faded with the years
 A 
Washed away by all the tears
     G A D  
And when I look, all I see are blue memories


CHORUS:
 G 
Picture this and paint it blue
   D 
A photograph of me and you
 G 
Smile has faded with the years
 A 
Washed away by all the tears
     G A D A  
And when I look, all I see are blue memories
          D A  
Blue memories
          D  
Blue memories


OUTRO:  G D A D A D

Murderer Of Blue Skies Tabs – Chris Cornell

 -------------------------------------------------------------------------------
                     Murderer of Blue Skies - Chris Cornell
-------------------------------------------------------------------------------

Tuning: Standard (EADGBe)

 | 1 + 2 + 3 + 4 + | 1 + 2 + 3 + 4 + | 1 + 2 + 3 + 4 + | 1 + 2 + 3 + 4 + |

Introduction 
e|---3-----3-----3-|---3-----3-----3-|---3-----3-----3-|---3-----3-----3-|
B|-----3-----3-----|-----3-----3-----|-----3-----3-----|-----3-----3-----|
G|-----------------|-----------------|-----------------|-----------------|
D|-2-----2-----2---|-2-----2-----2---|-2-----2-----2---|-2-----2-----2---|
A|-----------------|-----------------|-----------------|-----------------|
E|-----------------|-----------------|-----------------|-----------------|


Verse I                                                                     
e|---3-----3-----3-|---3-----3-----3-|---3-----3-----3-|---3-----3-----3-|
B|-----3-----3-----|-----3-----3-----|-----3-----3-----|-----3-----3-----|
G|-----------------|-----------------|-0-----0---------|-----------------|  x3
D|-2-----2-----2---|-0-----0-----0---|-----------------|-----------------|
A|-----------------|-----------------|-------------2---|-3-----3-----3---|
E|-----------------|-----------------|-----------------|-----------------|

e|---3-----3-----3-|---3-----3-----3-|---3-----3-----3-|---3-----3-----3-|
B|-----3-----3-----|-----3-----3-----|-----5-----5-----|-----5-----5-----|
G|-----------------|-----------------|-------2---------|-------2---------|
D|-2-----2-----2---|-0-----0-----0---|-----------------|-----------------|
A|-----------------|-----------------|-4-----------4---|-4-----------4---|
E|-----------------|-----------------|-----------------|-----------------|


Chorus I                                                                      
e|---3-----3-----3-|---3-----3-----3-|---3-----3-----3-|---3-----3-----3-|
B|-----3-----3-----|-----3-----3-----|-----3-----3-----|-----3-----3-----|
G|-----------------|-----------------|-0-----0-----0---|-----------------|  x2
D|-----------------|-2-----2-----2---|-----------------|-4-----4-----4---|
A|-3-----3-----3---|-----------------|-----------------|-----------------|
E|-----------------|-----------------|-----------------|-----------------|

e|---3-----3-----3-|---3-----3-----3-|---3-----3-----3-|---3-----3-----3-|
B|-----3-----3-----|-----3-----3-----|-----3-----3-----|-----5-----5-----|
G|-----------------|-----------------|-0-----0-----0---|-------2---------|
D|-----------------|-2-----2-----2---|-----------------|-----------------|
A|-3-----3-----3---|-----------------|-----------------|-4-----------4---|
E|-----------------|-----------------|-----------------|-----------------|

e|---3-----3-----3-|---3-----3-----3-|---3-----3-----3-|
B|-----5-----5-----|-----3-----3-----|-----3-----3-----|
G|-------2---------|-----------------|-----------------|
D|-----------------|-----------------|-0-----0-----0---|
A|-4-----------4---|-3-----3-----3---|-----------------|
E|-----------------|-----------------|-----------------|


Interlude                                                                   
e|---3-----3-----3-|---3-----3-----3-|---3-----3-----3-|---3-----3-----3-|
B|-----3-----3-----|-----3-----3-----|-----3-----3-----|-----3-----3-----|
G|-----------------|-----------------|-0-----0---------|-----------------|  x2
D|-2-----2-----2---|-0-----0-----0---|-----------------|-----------------|
A|-----------------|-----------------|-------------2---|-3-----3-----3---|
E|-----------------|-----------------|-----------------|-----------------|


Verse II                                                                    
e|---3-----3-----3-|---3-----3-----3-|---3-----3-----3-|---3-----3-----3-|
B|-----3-----3-----|-----3-----3-----|-----3-----3-----|-----3-----3-----|
G|-----------------|-----------------|-0-----0---------|-----------------|  x3
D|-2-----2-----2---|-0-----0-----0---|------------

Blue Velvet Skies Tabs – Like Wendy

 ---------------------------------------------------------------------------------------------------------------
                                          Artist - Like Wendy 
                                         *********************
                                       Song - Blue Velvet Skies
                                      **************************
                                    Album - The Storm Inside (1998)   
                                   *********************************
                                          - Ayreon77
                                        **********************
---------------------------------------------------------------------------------------------------------------
Tuning = Standard

p   = Pull Off
h   = Hammer On
b   = Bend
rb  = Release Bend
rbp = Release Bend Pulloff
br  = Bend Release
brp = Bend Release Pulloff
/   = Slide
UB  = Union Bend



KEYBOARD INTRO
***************


----------------------------
00:38
SOLO 1 - Vol = *
*******

e|--*-----|-----------------------------|----------------------|---------------------|--------------|
B|-13~~~~-|---h-------s---------s-------|-----s---------s------|------s---------s----|---h------13--|
G|--------|-12-14--12-\10-10--9-\7-7~~~-|-7-9-\10-12--12\14-14-|-14-12\10-10--9-\7-7-|-12-14-12-----|
D|--------|-----------------------------|----------------------|---------------------|--------------|
A|--------|-----------------------------|----------------------|---------------------|--------------|
E|--------|-----------------------------|----------------------|---------------------|--------------|

00:51                                              00:56       h  p
e|-----------------5---5-|---8-7-----h--p-s-s-----|-10-13-12-10-12-10----10----------------|-----------------b-|
B|--p----------5-8---8---|--x----10-8-10-8\5/8--s-|-------------------13----13-12-10-12-13-|-10-12-13-12-13-13-|
G|-5-4---4-5-7-----------|-x-------------------9\-|----------------------------------------|-------------------|
D|-----7-----------------|------------------------|----------------------------------------|-------------------|
A|-----------------------|------------------------|----------------------------------------|-------------------|
E|-----------------------|------------------------|----------------------------------------|-------------------|

01:03
e|--b-10-|--b-10-|--b-10-|--b-10-|--b-10-|--b-10-|--b-10-|--b-10-|--b-10-|--b-10-|--br--------|
B|-13----|-13----|-13----|-13----|-13----|-13----|-13----|-13----|-13----|-13----|-13-10------|
G|-------|-------|-------|-------|-------|-------|-------|-------|-------|-------|-------12~~-|
D|-------|-------|-------|-------|-------|-------|-------|-------|-------|-------|------------|
A|-------|-------|-------|-------|-------|-------|-------|-------|-------|-------|------------|
E|-------|-------|-------|-------|-------|-------|-------|-------|-------|-------|------------|


e|----------|------------------------------|-----------------------------|----------------------|
B|---h--p---|--h--p-s---h---h---s---p---h--|---h-------s--------s--------|-----s---------s------|
G|-10-12-10-|-9-10-9\7-7-9-7-9-7\5-7-5-4-5-|-12-14--12-\10-10--9-\7-7~~~-|-7-9-\10-12--12\14-14-|
D|----------|------------------------------|-----------------------------|----------------------|
A|----------|------------------------------|-----------------------------|----------------------|
E|----------|------------------------------|-----------------------------|----------------------|


e|---------------------|-----------------s-|
B|------s---------s----|---h------13~~~~~\-|
G|-14-12\10-10--9-\7-7-|-12-14-12----------|
D|---------------------|-------------------|
A|---------------------|-------------------|
E|---------------------|-------------------|


----------------------------
01:33
VERSE 1
********
    Dm               F
The light moves slowly
    C                 Dm
The skyline cuts it's threads
    Dm    

Im Blue chords – Eiffel 65 Vsion 3

 Capo 3

  D C       
Yo, listen up here's a story
 Am Em D 
About a little guy that lives in
 C Am 
a blue world
      Em D C Am 
And all day and all night and everything he sees
       Em D 
Is just blue like him 
  C               
inside and outside
 Em D C 
Blue is his house with a blue little 
 Am Em 
window, and a blue corvette
  D Am Em          
And everything is blue for him, and himself
 D C Am 
And everybody around, 'cause he ain't 
 Em D C  (hold)
got nobody to listen.

        Em                          
I'm blue, da ba dee da ba die
da ba dee da ba, 
da ba dee da ba die 
da ba dee da ba, 
da ba dee da ba die 
da ba dee da ba
da ba dee da ba die
            D C 
I'm blue, da ba dee da ba die
        Am 
da ba dee da ba, 
        Em 
da ba dee da ba die 
        D  
da ba dee da ba, 
 C Am 
da ba dee da ba die 
 Em D  
da ba dee da ba
 C Am 
da ba dee da ba die

C, Em, D 
C, Am, Em
D, C, Am
Em, D, C

 Bm D F G   
I have a blue house with a blue
 Bm D F G        
window. Blue is the color of all that I wear.
 Bm D F G   
Blue are the streets and all the trees are too. 
 Bm D                
I have a girlfriend, 
    C G 
and she is so blue. 
 Bm D F G   
Blue are the people here that walk around,
 Bm D F G   
Blue like my corvette, it's standing outside. 
 Bm D F G   
Blue are the words I say and what I think. 
 Bm D  (hold) 
Blue are the feelings that live inside me.

Chorus (x2)

 Bm D F G   
I have a blue house with a blue
 Bm D F G        
window. Blue is the color of all that I wear.
 Bm D F G   
Blue are the streets and all the trees are too. 
 Bm D                
I have a girlfriend, 
    C G 
and she is so blue. 
 Bm D F G   
Blue are the people here that walk around,
 Bm D F G   
Blue like my corvette, it's standing outside. 
 Bm D F G   
Blue are the words I say and what I think. 
 Bm D  (hold) 
Blue are the feelings that live inside me.

Chorus (x2)

Searching The Blue chords – The Arcs

 Intro
  Ab 
E|----------------------------4-----------------------
B|-----4--6-----4-------4--6-----6--4-------4--6-----4--
G|--5--------5-------5-------------------5--------5------
D|--------------------------------------------------
A|--------------------------------------------------
E|--------------------------------------------------
 Ab 
War is over now

I feel my mind returning

Carried on a cloud
                              Fm 
Every nerve was burning over you
                Bbm 
I never had a need at all for anyone
                  
Anyone other than you
                 Eb 
But now that's through
     Eb7 
So through
       Db 
We're prayin' to get it fast
        Cm 
And we pray it's in the past
      Bbm Ab    
Is anything we do ever gonna last?
                    Bbm 
Couldn't I have a clue?
               Ab 
Searching the blue
                    Bbm 
Couldn't I have a clue?
               
Searching the blue
               Gb Eb/G           
Searching the blue

  Ab 
E|----------------------------4-----------------------
B|-----4--6-----4-------4--6-----6--4-------4--6-----4--
G|--5--------5-------5-------------------5--------5------
D|--------------------------------------------------
A|--------------------------------------------------
E|--------------------------------------------------

 Ab 
The lay of land disease

I can't handle even

The right that we receive

Have clouded beyond reason
            Fm 
Still with me
                 Bbm 
Human knows its self throughout without a doubt
                                 Eb Eb7 
For better, for worse we will remain the same
        Db 
We're praying to get it fast
         Cm 
And we pray it's in the past
    Bbm Ab                        
Is anything we do ever gonna last?

  Bbm 
Couldn't I have a clue?
               Ab 
Searching the blue
                    Bbm 
Couldn't I have a clue?
               
Searching the blue
                Gb Eb/G           
Searching the blue

Make Rock Not War Tabs – Blue Öyster Cult

 Tom: Ebm  
Nota: Podes tocar os acordes indicados como power chords apenas, com distorção.

Intro:

E|---------------------------------------------|
B|---------------------------------------------|
G|---------------------------------------------|
D|-------6------------6------------8--6-6------|
A|-6-8-9----9---6-8-9----9---6-8-9---------9-9-|
E|---------------------------------------------|

E|---------------------------------------------|
B|---------------------------------------------|
G|---------------------------------------------|
D|-------6------------6------------8--6-6------|
A|-6-8-9----9---6-8-9----9---6-8-9---------9-9-|
E|---------------------------------------------|

Ebm                       B
Moments of pleasure, in a world of pain.
Ebm                       B 
Working together, only to fight again.
      Abm                           Bbm                         B
If we wait for the world leaders to decide, who will die first?
         F#   B  Db
So don't wait no more!
              Ebm  Db  Ebm  B           Db
Tell me, make rock not war! What are we dying for?
Ebm  Db  Ebm  B      Db
Rock not war! Nobody wins!
Ebm  Db  Ebm  F#/F        F#          B
Rock not war! What are we trying for?
                                    B
And the fools rush in, don't they,
                        F# F#/F
For the grand beginning of the end!

Passagem:

E|---------------------------------------------|
B|---------------------------------------------|
G|---------------------------------------------|
D|-------6------------6------------8--6-6------|
A|-6-8-9----9---6-8-9----9---6-8-9---------9-9-|
E|---------------------------------------------|

Ebm                             B
Pulses are racing. You know the blade may fall.
Ebm                            B
Destinies tracing. I sing to a great star-fall.
        Abm                                     Bbm                B
And you know there's a real answer, but they've already been told.
                F#   B     Db
We've heard our lies being cold!

              Ebm  Db  Ebm  B           Db
Tell me, make rock not war! What are we dying for?
Ebm  Db  Ebm  B      Db
Rock not war! Nobody wins!
Ebm  Db  Ebm  F#/F        F#          B
Rock not war! What are we trying for?
                                   B
And the fools rush in, don't they,
                        F# F#/F                                 
For the grand beginning of the end!

Passagem:

E|---------------------------------------------|
B|---------------------------------------------|
G|--------------------------------------8------|
D|-------6------------6------------8-----------|
A|-6-8-9----9---6-8-9----9---6-8-9----9--------|
E|---------------------------------------------|

    (F# Abm)x2     (F# Abm)x2  (F# Abm)x2     B   Bbm
The hourglass turns over, and time is running low.
(F# Abm)x2         (F# Abm)x2
Will the sandman's pollen 
      (F# Abm)x2
bring sleep before we know?


SOLO: Não vou botar aqui, mas se não conseguirem tirar de ouvido improvisem ;)  *escala de Ebm

          Abm                                   Bbm                       B
Yeah, you know there's a real answer, and we've died more than been told.
         F#   B  Db
So don't wait no more!
              Ebm  Db  Ebm  B           Db
Tell me, make rock not war! What are we dying for?
Ebm  Db  Ebm  B      Db
Rock not war! Nobody wins!
Ebm  Db  Ebm  F#/F        F#          B
Rock not war! What are we trying for?
                                 B
And the fools rush in, don't we,
                        F# F#/F
For the grand beginning of the end!

E|---------------------------------------------|
B|---------------------------------------------|
G|---------------------------------------------|
D|-------6------------6------------8--6-6------|
A|-6-8-9----9---6-8-9----9---6-8-9---------9-9-|
E|---------------------------------------------|

Make rock not war!

E|---------------------------------------------|
B|-------------------------------

I Love You Golden Blue chords by Sonic Youth

 I LOVE YOU GOLDEN BLUE
capo 1

relative to capo
 Dsus2   000230
 Asus2   002200
 Cadd9   032030
 G       320003

 Dsus2 Asus2 
Dead boy stares
 Cadd9 G   
Strange to meet you
 Dsus2 Asus2 
Dead boy cares
 Cadd9 G 
So great to see you

 Dsus2 Asus2 
Is it time to go
 Cadd9 G    
It's a place I know
 Dsus2 Asus2 
I can't read your mind
 Cadd9 G 
I can't find the time
 Dsus2 Asus2 
I can't feel the thrill
 Cadd9 G 
I don't have the will

 Dsus2 Asus2 
Dead boy dares
 Cadd9 G 
Believe in you
 Dsus2 Asus2 
Dead boy stares
 Cadd9 G 
Afraid that you will see him

 Dsus2 Asus2 
Is it time to go
 Cadd9 G 
Is it a place I know
 Dsus2 Asus2 
I can't read your mind
 Cadd9 G 
I can't find the time
 Dsus2 Asus2 
I can't feel the thrill
 Cadd9 G 
I don't have the will

 Dsus2 Asus2 
I love   you
 Cadd9 G 
A metallic  blue
 Dsus2 Asus2 
I love  you
 Cadd9 G 
Golden   blue
 Dsus2 Asus2 
I miss  you
 Cadd9 G 
Shine all alone

 Dsus2 Asus2  
I miss you
       Cadd9 G 
Don't know what to do
         Dsus2 Asus2 
I don't glitter like the stars above
         Cadd9 G 
I don't glow like neon alone
       Dsus2 Asus2  
Don't blush it's just the wind outside
       Cadd9 G 
Don't rush to be by my side

Venus chords – Shocking Blue V3

 Artist: Shocking blue
Song: Venus
: DJ
28th Feb 2015

B7sus4 = x24252 or x22202    A5 = x022xx or 577xxx
B7     = x24242 or x21202    B5 = x244xx or 799xxx
Em     = 022000 or x79987    D  = xx0232 or x57775
A      = x02220 or 577655    C  = x32010 or x35553

In the two main chord sections the keyboard adds a b9 note.
As an option, this can be played on guitar as below:

[Verses, and part of choruses]
      Em A     Aaddb9  A 
e|---0---0---0---0---0---0---0---0---|
B|---0---0---0---0---2---2---2---2---|
G|---0---0---0---0---2---2---3---2---|
D|---2---2---2---2---2---2---2---2---|
A|---2---2---2---2---0---0---0---0---|
E|---0---0---0---0-------------------|


[First part of choruses]
      Am D     Daddb9  D 
e|---0---0---0---0---2---2---2---2---|
B|---1---1---1---1---3---3---4---3---|
G|---2---2---2---2---2---2---3---2---|
D|---2---2---2---2---0---0---0---0---|
A|---0---0---0---0-------------------|
E|-----------------------------------|

*********************************************************************

[Intro]
  B7sus4 Em A Em A 
|  /  /  /  /  |  /  /  /  /  |  /  /  /  /  |  /  /  /  /  |

   B7sus4 
|  /  /  /  /  |  /  /  /  /  |

      Em A Em A 
||:  /  /  /  /  |  /  /  /  /  :||[x2]


[Verse 1]
     Em A Em A Em A Em A 
A goddess, on a mountain top,     was burning like a silver flame,
       Em A Em A Em A 
The summit of beauty and love,    and Venus was her name!

     Em                    (She's...)
e|---0---------------------------|
B|---0---------------------------|
G|---0---------------------------|
D|---2---------------------------|
A|---2-----------0--2--2--0------|
E|---0---0--h3---------------3---|


[Chorus]
          Am D Am D Em A Em A 
She's ...got it!           Yeah, baby, she's got it!
      C B7sus4 B7 Em A Em A 
Well,  "I'm your venus,      I'm your fire, at your desire,
      C B7sus4 B7 Em A Em A 
Well,  "I'm your venus,      I'm your fire, at your desire!


[Break]
    Em A Em A Em A Em A 
|  /  /  /  /  |  /  /  /  /  |  /  /  /  /  |  /  /  /  /  |

    Em A Em A Em A Em 
|  /  /  /  /  |  /  /  /  /  |  /  /  /  /  |  /  /  /  /  |


[Verse 2]
       Em A Em A Em A Em A 
Her weapons were her crystal eyes,      making every man mad,
  Em A Em A Em A 
Black as the dark night she was,     got what no one else had!

     Em 
        Wow!               (She's...)
e|---0---------------------------|
B|---0---------------------------|
G|---0---------------------------|
D|---2---------------------------|
A|---2-----------0--2--2--0------|
E|---0---0--h3---------------3---|


[Chorus]
          Am D Am D Em A Em A 
She's ...got it!           Yeah, baby, she's got it!
      C B7sus4 B7 Em A Em A 
Well,  "I'm your venus,      I'm your fire, at your

Truly Blue chords – Mickey Newbury

 Truly Blue

 F# D#m 
There’s really nothin' the matter 
 G#m 
I'm only shakin' the blues 
 C# F# C#  
Only takin' the time to break in my new shoes 

There’s no need to worry 
Time is on my side
No need for me to hurry, I got no place to hide 

Chorus:
 F# D#m G#m      
Truly blue, truly blue 
   C# F# C# C#7   
I am so sad I don't know what to do 
 F# D#m G#m 
Truly blue, truly blue 
         F# C# F#     
I still love you, I truly do 


 D#m G#m 
There’s really nothin' the matter, I'm only payin' my dues 
 C# F# C#7 
I'm only playin' the game of hide and seekin' someone new 

There’s no need to worry...

Chorus

Lost Together chords – Blue Rodeo V2

 Blue Rodeo - Lost Together

Intro   G D/F#  | Em D    | G D/F#  | Em      ||


Verse 1
 G D/F# Em D G D/F# Em 
Strange and beautiful are the stars tonight that dance around your head
 G D/F# Em D G D/F# Em           
In your eyes I see that perfect world, I hope that doesn't sound too weird

 C D G 
 And I want all the world to know
 C D Em               D*
 That your love's all I need all that I need

D*
-2--2-3--3-2--2-3--2-|
--3----3----3---3--3-|
---2----2----2--2--2-|
----------------0--0-|
---------------------|
---------------------|


Chorus
              G D/F# Em C              D*
 And if we're lost    then we are lost together
                G D/F# Em C              D*
 Yeah, if we're lost,      we are lost together



Verse 2
 G D/F# Em D G D/F# Em 
 I stand before this faceless crowd; I wonder why I bother
 G D/F# Em D G D/F# Em 
 So much controlled by so few, stumbling from one disaster to another

  C D G 
 I've heard it all so many times before
 C D Em                D*
 It's all a dream to me now, a dream to me now


Chorus
              G D/F# Em C              D*
 And if we're lost    then we are lost together
                G D/F# Em C              D*
 Yeah, if we're lost,      we are lost together


Interlude   C      | D G  | C D   | Em      | D Cadd9  | G/B D/A  || G      




Verse 3
 G D/F# Em D G D/F# Em 
 In the silence of this whispered night I listen only to your breath
 G D/F# Em D G D/F# Em 
 And in that second of a shooting star somehow it all makes sense

 C D G 
 And I want all the world to know
 C D Em               D*
 That your love's all I need all that I need


Chorus
              G D/F# Em C              D*
 And if we're lost    then we are lost together
                G D/F# Em C              D*
 Yeah, if we're lost,      we are lost together


Interlude    G D/F#  | Em C   |D*    |     ||x2


Chorus
                G D/F# Em C              D*
 Yeah, if we're lost,   then we are lost together
                G D/F# Em C              D*
 Yeah, if we're lost,   then we are lost together, together, together

   

Outro   G D/F#  | Em D   | G D/F#  | Em      | G D/F#  | Em D   | G   D/F@  | Em

Blue Christmas chords – Elvis Presley V4

 Blue Christmas


(1. Blues Version)

fill 1                   fill 2
e|-------------          e|-------------
B|-------------          B|-------------
G|-------------          G|-------------
D|-------------          D|-------------
A|-------------          A|--0----------
E|--0--2--4----          E|-----4--3----


             E B7 B7 
I'll have a Blue Christmas without you   --(fill 1)
                                E E 
I'll be so blue just thinking about you   --(fill 1)
     E7 E A                      
Decorations of red on a green Christmas tree   --(fill 2)
 F# B7 B 
Won't be the same dear, if you're not here with me

                E B7 B7 
And when those blue snowflakes start falling   --(fill 1)
                                       E E 
That's when those blue memories start calling   --(fill 1)
      E7 E A                    
You'll be do - in' all right, with your Christmas of white   --(fill 2)
 F# B7 E E 
But I'll have a blue, blue blue blue Christmas    --(fill 1) 




(2. Classic Version)

             F C7 
I'll have a Blue Christmas without you
                                F 
I'll be so blue just thinking about you
     Cm D7 Cm D7 Gm 
Decora - tions of red on a green Christmas tree
 G7 C7 
Won't be the same dear, if you're not here with me

                    F C7 
And the when those blue snowflakes start falling
                                       F 
That's when those blue memories start calling
           Cm D7 Cm D7 Gm Fdim 
You'll be do - in' all right, with your Christmas of white
     C7 F 
But I'll have a blue, blue blue blue Christmas


           Cm D7 Cm D7 Gm Fdim 
You'll be do - in' all right, with your Christmas of white
     C7 F 
But I'll have a blue, blue blue blue Christmas





Words and Music by Billy Hayes and Jay Johnson (1948)

Burning In The Sun chords – Blue Merle V2

 Burning In The Sun

Blue Merle


Verse:

         G D   
W-ell I had a g-irl

     Am7 G Am 
she was the best around

                D    
And I was in l-ove,

       Am7 G Am 
now I-'m just hangin ou-t    



Chorus:


                   D        
And I'm burning in the sun

        Am7     
Losing my mind

 G Am 
Hearts break in the summer time       

                   D     
I'm burning in th-e sun

    Am7 G  
An-d Losing my mi-nd



      
Verse:

   G D    
I thought I was a man;

   Am7 G Am 
                  
I was ready to die for her

                       D     
It wasn't part of the plan,

      Am7 G Am 
what was I suppose to do   

             
Run, run, run



Chorus:


                   D        
And I'm burning in the sun

        Am7     
Losing my mind

 G Am 
Hearts break in the summer time       

                   D     
I'm burning in th-e sun

    Am7 G  
An-d Losing my mi-nd


                           
(bridge/instrumental break)


 G D     
I had a girl,

 Am G Am 
             
she was the best around

      
Ya, Ya

                       D     
It was it part of the plan,

 Am7 G Am 
was I suppose to do   

             
Run, run, run



Chorus:


                   D        
And I'm burning in the sun

        Am7     
Losing my mind

 G Am 
 Ya ya       

                   D     
I'm burning in th-e sun

    Am7 G  
An-d Losing my mi-nd

   
   

Harbor Drive Hookup – Velvet Blue Sky chords

 Velvet Blue Sky, Written by Harbor Drive Hookup   10.7.14

3/4 Time, Country Style Strum. The same pattern repeats throughout.

Capo 5
 G C D G 

No Capo
 C F G C 

CHORUS 01
Remember that night
a long time ago
alone, just you and I

If there were ever a time
When my heart felt alive
It was under that velvet blue sky.

VERSE 01
Hand in hand
Together my love
Wishing we were free

Still I walk on without you
My heart it longs for you
Knowing our love will never be

CHORUS 02
Play me that tune
you wrote for me
And I’ll write a sweet song for you

If there were ever a time
When my heart felt alive
It was under that velvet blue sky

VERSE 02
I’ll never get over 
The thought of getting older
If getting older, well it ain’t with you

Oh the times may get though
but I aint giving up
So I promise you my love today

VERSE 03
Take me back
to the place that I love
It seems so far far away.

Like an angel I shine
To light your way
anywhere I'd go with you

CHORUS 01
Remember that night 
a long time ago
Alone just you and I

If there were ever a time
When my heart felt alive
It was under that velvet blue sky.

Harbor Drive Hookup – Feelin Blue chords

 Feelin' Blue- Harbor Drive Hookup

 Am C Dm E5 G5  

VERSE 01
 Am C 
Today's just one of those days
                Dm E5 G5 
I hate everyone
 Am C 
I'll drive my car right off 
                 Dm E5 G5 
the road for fun

Will I make it till
the day is done?
If I don't, please
don't tell no one

CHORUS
 Am C 
I will make it and when I do
 G Am 
To myself I will always be true
 Am C 
I always knew that I would make it through
 G Am 
but sometimes I forget when I'm feeling blue
 Am C 
I will make it and when I do
 G Am 
To myself I will always be true
 Am C 
I always knew that I would make it through
 G Em Am 
but sometimes I forget when I'm feeling blue

VERSE 02
Today's just one of those days
I can't see no sun
The day seemed lost long
before it'd begun
days like these were made
for shooting guns
I'd end it all if I didn't
love someone

CHORUS
End

Running Of The Bulls chords – Red Wanting Blue

 
Red Wanting Blue - Running of the Bulls

 Dm Bb F C    X 2


 Dm Bb 
        So much pressure
                   F C    
Boy, it feels like       I traded dumbbells for skyscrapers
 Dm Bb 
         Measure for measure
                            F C 
We look up and curse heaven with our mouths in the gutter

 Dm Bb 
         You say that you 
              F C    
Know where to find the flaws in my armor
 Dm Bb 
         You whisper, 
      F C 
"don’t act surprised....I’ll never tell’



 F C Dm 
We will not apologize for this
 C 
We are what we are
 F Bb Dm 
We will not compromise for this
 Bb 
Regret’ll understand



 Dm Bb 
         Bonnie and Clyde , I love when you say that
 F C 
I’m      your partner in crime
 Dm Bb 
        You never lied
          F C 
But a woman’s words tend to be in disguise
 Dm Bb 
   You say that you  
 F C 
Don’t want to hide the flaws in your armor
 Dm Bb 
            If you        Let me inside
 C 
 I’ll never tell



 F C Dm 
We will not apologize for this
 C 
We are what we are
 F Bb Dm 
We will not compromise for this
 Bb 
Regret’ll understand

 F C Dm 
We will not apologize for this
 C 
We are what we are
 F Bb Dm 
We will not compromise for this
 Bb 
Regret’ll understand



 Dm F Bb C     X 2



 Dm F Bb     
Her love’s like a running of the bulls
         C 
But against the current
 Dm F Bb     
Her love’s like a running of the bulls
         C 
But against the current


 F C Dm 
We will not apologize for this
 C 
We are what we are
 F Bb Dm 
We will not compromise for this
 Bb 
Regret’ll understand


 F C Dm 
We will not apologize for this
 C 
We are what we are
 F Bb Dm 
We will not compromise for this
 Bb 
Regret’ll understand

 Dm F Bb     
Her love’s like a running of the bulls
         C 
But against the current
 Dm F Bb     
Her love’s like a running of the bulls
         C 
But against the current

 Dm F Bb     
Her love’s like a running of the bulls
         C 
But against the current
 Dm F Bb     
Her love’s like a running of the bulls
         C 
But against the current

Without You chords – Blue

 
   Intro:
|e| |----------------|----------------|----------------|----------------|
|B| |----3-----3-----|----3-----3-----|----3-----3-----|----3-----3-----|
|G| |----------------|2-2-----2---2---|----------------|----------------|
|D| |----------------|----------------|----------------|----------------|
|A| |----------------|----------------|----------------|----------------|
|E| |3-3-----3---3---|----------------|0-0-----0---0---|0-0-----3---3---|

This is how the intro is played in the original version and you can keep on playing it for the Vers or you just
play |  G  |  D  |  Em  |  Em G  | for the Intro.


Vers:
 G 
Sorry if it feels like you're in the dark
 D 
Sorry if it feels like we're miles apart
 C G 
Just come a little closer
 C G 
I just wanna hold ya

 G 
You are my lady still, I'm gonna break it down
 D 
There's a lot of things I never say out loud
 C G 
Thinking you already know this
 C G 
And I don't need to say shit

Pre-Chorus:
 D Em 
Now I know that you don't know
        G 
What I feel inside
    D 
So let me open up your eyes for you

Chorus:
 G Am 
Dried up all the seas today
                          Em 
Brush the deserts on our way
                            C 
Put the whole world in the box
                             G 
Close it down and keep it locked
                           Am 
Take the stars out of the sky
                         Em 
Til the sun too burnin high
                          C 
You can tear the moon in two
                         G 
'Cause it's nothing without you
             Am 
Nothing without you
                 Em 
Nothing without you
    C  
Oh no

Vers:
 G 
What's it gonna take for you to hear me out?
 D 
There's nothing that I'm down to tell my friends about
 C 
I don't wanna wreck this
 C 
I'm trying to protect this

 G 
You know you can tell me anything you like
 D 
And I will keep it secret til the day I die
 C 
I will be your soldier
 C 
Protect, serve and hold ya

Pre-Chorus:
 D Em 
Now I know that you don't know
        G 
What I feel inside
    D 
So let me open up your eyes for you

Chorus:
 G Am 
Dried up all the seas today
                          Em 
Brush the deserts on our way
                            C 
Put the whole world in the box
                             G 
Close it down and keep it locked
                           Am 
Take the stars out of the sky
                         Em 
Til the sun too burnin high
                          C 
You can tear the moon in two
                         G 
'Cause it's nothing without you
             Am 
Nothing without you
                 Em 
Nothing without you
    C  
Oh no

Bridge:
 Am 
When I first saw you, how could I resist?
 Em 
The smile, the make-up, the shape of your lips
 G 
If I had three wishes, you're the top on my list
 D 
It's about time I told you this, yea
 Am 
My nights without you, they would be so cold
 Em 
I came to be your man so I should let you know
 G 
I'd rather give away the whole world and my soul
 D 
Than sit back and watch you go


Chorus:
 G Am 
Dried up all the seas today
                          Em 

Blue Jay Way Tabs – Beatles V2

 THE BEATLES - BLUE JAY WAY
==========================

Words & Music by George Harrison
Copyright 1967 Northern Songs

Open C6-Tuning: C-G-C-G-A-e
tab by rosh85


This song evolves around a C chord for most of the time throughout the song with the overtones 
to back George Harrison's lead vocals and thus constantly changing the chord. Since it was composed
on a hammond organ, this is an attempt to transfer it to a guitar. Since it's the most comfortable way
to play it,I've chosen an open C6 tuning (C-G-C-G-A-e).


INTRO:

     C                   C                   C        C7+         
e||-------------------|-------------------|--------------------|
A||-------------------|-------------------|--0--------2--------|
G||--5----------------|--5----------------|--0--------0--------|
C||-------------------|--0----------------|--0--------0--------|
G||-------------------|-------------------|--------------------|
C||-------------------|-------------------|--------------------|


  C5       C7+       (C7+)  C6   C7+  C9+     C5 C7+ C5 C7+  C6  C7+   
--------------------|----------------------|------------------------|
--3--------2--------|-(2)---0----2----5----|--3----2--3--2----0--2--|
--0--------0--------|-(0)---0----0----0----|--0----0--0--0----0--0--|
--0--------0--------|-(0)---0----0----0----|--0----0--0--0----0--0--|
--------------------|----------------------|------------------------|
--------------------|----------------------|------------------------|


  C5                 
-------------------||
-------------------||
--0----------------||
--0----------------||
-------------------||
-------------------||


VERSE:

    Cdim                       C                   
e||-------------------------|-------------------|
A||-------------------------|-------------------|
G||-(0)---------------------|-------------------|
C||-(0)---0--3--6--3--0--3--|--4----------------|
A||------------------- -----|--5----------------|
C||-------------------------|--0----------------|

 1. There's a fog up-on L.     A.
 2. Well it on-ly goes to      show.
 3. Now it's past my bed I     know.


  Cdim                      C                  Cdim
-------------------------|-------------------|-------------------------|
-------------------------|-------------------|-------------------------|
-------------------------|-------------------|-------------------------|
-(4)---0--3--6--3--0--3--|--4----------------|-(4)---0--3--6--3--0--3--|
-(5)---------------------|--5----------------|-(5)---------------------|
-(0)---------------------|--0----------------|-(0)---------------------|

 1. And my friends have lost their way.         We'll be o-ver soon they
 2. And I told them where to go.                Ask a p'liceman on the
 3. And I'd real-ly like to go.                 Soon will be the break of


  Cb5                Cdim                       C5
-------------------|-------------------------|-------------------|
-------------------|-------------------------|-------------------|
-------------------|----------0--2--0-----2--|-------------------|
--6----------------|-(6)---3-----------3-----|--7----------------|
--5----------------|-(5)---------------------|--5----------------|
--0----------------|-(0)---------------------|--0----------------|
1. said.            Now they've lost them-selves in-stead.
2. street.          There's so ma-ny there to meet.
3. day.             Sit-ting here in Blue Jay Way.


CHORUS:

     C6       C7+         C5       C7+                             
e||--------------------|--------------------|
A||--0--------2--------|--3--------2--------|
G||--0--------0--------|--0--------0--------|
C||--0--------0--------|--0--------0--------|
G||--------------------|--------------------|
E||--------------------|--------------------|
   Please   don't        be      long 

      C6   C7+          C5  C7+   C5  C7+ C6 C7+
                        |----3----|                   
---------------------|--------------------------|
-(2)-

Blue Moon chords – Frank Sinatra

 Blue Moon
Frank Sinatra (1961)

DbmM7/ A :   4x655x
 Dbsus4/Ab : 4x667x
 Gbm6/Db :   x4x645
 Gbadd9/Ab : 4x432x

e|----------------|---------------|----------------|
B|-----6----8--7--|---------6--5--|--------4--3===-|
G|----------6--5--|---------4--3--|-----3--2--1===-|
D|---6---6--8--7--|---6-7-6-6--5--|---6----4--3===-|
A|-4--------------|-4-------------|-4--------------|
E|----------------|---------------|----------------|

[Motif]
e|----4--9---4--4-------|
B|-2--4--9---2--2-2--2--|
G|-3--4--9---3--3-3--3--|
D|-3--2--7---4--4-4--4--|
A|-4--------------------|
E|----------------4--4--|

      Db5 Db  DbmM7/ Ab 
Blue moon
            Db5 Db Dbsus4/Ab 
you saw me standing alone
                       Db5 Db Gbm6/Db 
Without a dream in my heart
           Gbadd9/Ab        (motif)
Without a love      of my own

 Db5 Db  DbmM7/ Ab Db5 Db Dbsus4/Ab 
Blue moon,      you knew just what I was there for
                       Db5 Db Gbm6/Db 
You heard me saying a prayer for
           Gbadd9/Ab     (motif)
Someone I really could care for

                Ebm7 Dm7 DbM7 
And then there suddenly appeared before me
      Ebm7 Ab DbM7 
The only one my arms would hold
          Gbm B7 EM7 
I heard somebody whisper, "please adore me"
            Eb7 Ab7 
And when I looked to the moon it turned to gold

[Refrain]
      Db5 Db  DbmM7/ Ab 
Blue moon
                   Db5 Db Dbsus4/Ab 
now I'm no longer alone
                       Db5 Db Gbm6/Db 
Without a dream in my heart
           Gbadd9/Ab        (motif)
Without a love      of my own

Solo
[:  Db Db/C Db/Bb Db/Ab  | x4
Bbm7 / / / | Ebm7 / Ab7 / | Db / / / | Db / / / | :]

                Ebm7 Dm7 DbM7 
And then there suddenly appeared before me
      Ebm7 Ab DbM7 
The only one my arms would hold
          Gbm B7 EM7 
I heard somebody whisper, "please adore me"
            Eb7 Ab7 
And when I looked to the moon it turned to gold

[Play Refrain 2x]

https://www.youtube.com/watch?v=xZKlgNH3D8A

New Morning Sun chords – Blue Rodeo

 #----------------------------------PLEASE NOTE---------------------------------#
#This file is the author's own work and represents their interpretation of the #
#song. You may only use this file for private study, scholarship, or research. #
#------------------------------------------------------------------------------#

SONG: New Morning Sun
ARTIST: Blue Rodeo
WRITTEN BY: Jim Cuddy & Greg Keelor
 In Our Nature
: Rob Penfold (Rob rob@robpenfold.com) & Josh Dwyer (joshdwyer94@live.ca)



Intro:  Bm ,  G ,  Bm ,  G Bm G 
Maybe now, we could be lovers.
       Bm G 
We’ll share all the darkness in our souls.
  Em C 
Don’t you tell me lies, 
                G D 
I could always see the truth in your eyes.
 Em C 
Please don’t lead me on, 
                G D 
Better just to crush me now and be gone.


 Bm G 
Way down here, under the red lights,
    Bm G 
We carved our futures on the wall.
 Em C 
Some days seemed too much,
                G D 
I could always bend right under your touch.
 Em C 
Morning comes again,
              G D 
I’ve already moved way past all the pain.


     (Chorus)
               C G C G Gsus4 G D 
     We gotta rise up, rise up and take the sky like a new morning sun.
             C G C G Gsus4 G D 
     If we walk away, then we walk away never knowing what we could have done.
                    Em C G D Em 
     Maybe you’re right, we lose some time, stand around and see whats fine.
         D Em C D C G C G 
     Or what will come, that’s the risk that we run, run


 Bm G 
Now we can hear everyone talking,
     Bm G 
Our world’s getting smaller every day.
 Em C 
All our games are played,
          G D 
We gotta live with the mess that we made.
 Em C 
Don’t you walk away,
                  G D 
I can hear every word that you say.


     (Chorus)
               C G C G Gsus4 G D 
     We gotta rise up, rise up and take the sky like a new morning sun.
             C G C G Gsus4 G D 
     If we walk away, then we walk away never knowing what we could have done.
                    Em C G D Em 
     Maybe you’re right, we lose some time, stand around and see whats fine.
         D Em C D C G C G 
     Or what will come, that’s the risk that we run, run


Solo to verse


Outro
  C G C G Gsus4 G D 
Rise up, rise up and take the sky like a new morning sun,
         C G C G Gsus4 G C 
If we walk away, then we walk away never knowing what we could have done X2

 C G C G Gsu