Tag: born

You Was Born To Die chords – Blind Willie Mctell

 -------------------------------------------------------------------------------
                             You Was Born To Die - Blind Willie Mctell
-------------------------------------------------------------------------------
: Sven Letanosky
 SvenLetanosky

Intro:  D D D D G G D D A G D D 
Spoken "oh, Play that thing boy, I know you're blue... "

Verse:
 D 
Don't want no woman
That run around
Stay out in the street
act like a badfoot clown
Chorus:
 G 
You made me love you
                 D 
And you made me cry
 A 
You should remember,
 G D 
that you were born to die...
Verse:
 D 
The stream are yellow
Tossed it black and brown
I gotta black woman
Used to be the woman in town
Chorus:
 G 
You made me love you
                 D 
And you made me cry
 A 
You should remember,
 G D 
that you were born to die... 
Instrumental:  D D D D G G D D A G D D 
Spoken
"play it now for me..."
Verse:
 D 
I'm home at morning
Face full of frown
I know about that baby
You been running around
Chorus:
 G 
You made me love you
                 D 
And you made me cry
 A 
You should remember,
 G D 
that you were born to die... 
Verse:
 D 
Now look here woman
Give me your right hand
I thought you my woman
You go to your man
Chorus:
 G 
You made me love you
                 D 
And you made me cry
 A 
You should remember,
 G D 
that you were born to die... 

Dudley Smith – Youve Got To Be Born Again chords

 SONG:   YOU'VE GOT TO BE BORN AGAIN
ARTIST: DUDLEY SMITH
TAB BY: DON CZARSKI
EMAIL:  GUITARZAN7@HOTMAIL.COM

            YOU'VE GOT TO BE BORN AGAIN
                    DUDLEY SMITH

NOTE: Depending on what version you are listening to
      a CAPO is used on the 1st Fret or not at all.

INTRO: 
 C E F F#m C G C  


VERSE:
  C F C 
Let me tell you about the comforter, 
                 D G 
That the Bible said would lead you on
                              
Jesus said that you'll have power, 
            F G C 
When the Spirit comes down from the Throne
                  E 
Now, I'm filled with that promise, 
            F D 
That has brought new life to me
    F D C Am          
I once was lost, but now I'm found, 
        Dm G C 
I was blind, but now I see
  

CHORUS:
  C F 
Let me tell you that you must have that fire and Holy Ghost,
              C 
With that prayer wheel turning that keeps the fire burning
       F 
That kind of experience that you can feel, 
                 G 
That makes you move, makes you shout,
                           G# 
Makes you cry cause it's real 
            C 
Well I've got my hand, oh, in the Master's hand,
         F D 
And my soul's been anchored in Jesus' name 
                C F G C 
I'm free from sin and I know that I'm born again
        F C G#  slide up to  C#  
Yes I aaa-am


VERSE:
 C# F# C# 
So many toils and dangers, 
          D# G# 
He has brought me through

Jesus opened blinded eyes and He made the lame to walk, 
                F# G# C# 
Well, there's nothing too hard for God to do
                             F 
Now the time that you must seek Him, 
  F# C# 
Let Him feel your soul with Him
        F# D# C# Bb  
He'll make you whole as His presence fills your soul,
           D#m G# C# 
And then you'll be born born again


CHORUS:
              F# 
Let me tell you that you must have that fire and Holy Ghost,
              C# 
With that prayer wheel turning that keeps the fire burning
       F# 
That kind of experience that you can feel, 
                 G# 
That makes you move, makes you shout,
                           A 
Makes you cry cause it's real 
       D 
I've got my hand, oh, in the Master's hand,
         G E  
And my soul's been anchored in Jesus' name 
                D G A D     
I'm free from sin and I know that I'm born again
   
    
CHORUS:
  G 
You must have that fire and Holy Ghost,
             D 
With that prayer wheel turning that keeps the fire burning
       G 
That kind of experience that you can feel, 
                 A 
That makes you move, makes you shout,
                           A# 
Makes you cry cause it's real 
       D 
I've got my hand, oh, in the Master's hand,
         G E 
And my soul's been anchored in Jesus' name 
  D G 
I'm free from sin and I'm born again
  D<

Born To Love Tabs by Laura Marling

 Tuning: CGCGGC

Working it out from ear so will update it tab when I have figured out the other bits.

Intro riff:                             Bridge Chord:
                                        The last chord in held and picked
C----------------------------      -------------------|
G-7-9-7-9-7-9-2/4-4/5----5---      -4-5-10------------|
G----------------------0-----      -------------------|
C--------------------------0-      -2-4-9-------------|
G----------------------------      -------------------|
C---------------------0------      -------------------|

Riff 2:

-9-7-------------------------|
-----9-7-5-7/9---------------|
-----------------------------|
-----------------------------|
-----------------------------|
-----------------------------|


Riff 3:

-------12-14-14b16r14--------|
-12-14-----------------------|
-----------------------------|
-----------------------------|
-----------------------------|
-----------------------------|

Sex Born Poison Tabs by Air

 (Repeat this several times then lyrics then play it again)

e-------------------------------------------------------|
B------------1----------0----------2-0----------2-------|
G----------1----------1--------4------------2-----------|
D--------3----------2--------4---4--------2---2---------|
A------3----------2--------2------------4---------------|
E----1----------0---------------------------------------|

Born To Run chords – Bruce Springsteen V6

 BORN TO RUN
BRUCE SPRINGSTEEN

INTRO 2x:  E Esus4 E A B 

VERSE 1:
         E A B 
In the day we sweat it out on the streets of a runaway American dream 
     E A B 
At night we ride through mansions of glory in suicide machines
 A A/G# F#m 
Sprung from cages out on highway 9,  chrome wheeled, fuel injected
       C#m/G# E D    
and steppin’ out over the line    Oh  
 A A/G# 
Baby this town rips the bones from your back
         F#m C#m/G# E C#m 
It’s a death trap, it’s a suicide rap  we gotta get out while we’re young
         A B E    INTRO 2x
`Cause tramps like us, baby we were born to run

VERSE 2:

Wendy [ E ] let me in I wanna be your friend I wanna [ A ] guard your dreams and [ B ] visions
Just [ E ] wrap your legs ‘round these velvet rims and [ A ] strap your hands across my [ B ] engines    
[ A ] Together we could [ A/G# ] break this trap we’ll [ F#m ] run till we drop
[ C#m/G# ] Baby we’ll never go [ E ] back    [ D ] Oh
Will you [ A ] walk with me out on the [ A/G# ] wire    `Cause [ F#m ] baby I’m just a scared and
[ C#m/G# ] lonely rider but I [ E ] gotta know how it [ C#m ] feels   
I want to [ A ] know if love is wild babe I [ B ] want to know if love is [ E ] real INTRO 2x

SOLO: E [8 beats] A [4 BEATS]  B [4 BEATS]  2X  C#m [7 BEATS]    B E     Bm7

BRIDGE:
    Dsus D Dsus D Gsus G Gsus G     
Beyond the Palace hemi-powered drones scream down the boulevard
           Asus A Asus A Csus C Csus C 
The girls comb their hair in rearview mirrors And the boys try to look so hard
      Dsus D Dsus D Gsus G Gsus G 
The amusement park rises bold and stark as kids are huddled on the beach in the mist
         Asus A Asus A Csus C Csus C 
I wanna die with you Wendy on the streets tonight in an everlasting kiss

BRIDGE:  Fsus4 - F Fsus4 - F Fsus4 - F C  [8 BEATS] 
         Fsus4 - F Fsus4 - F F#sus4 - F# F#sus4 - F#   

DESCENDING LINE NOTES:  B Bb A Ab G F# F E Eb D C# C C C C B  CHORD HOLD
  
VERSE 3:
  
The [ E ] highway’s jammed with broken heroes on a [ A ] last chance power [ B ] drive
Every[ E ]body’s out on the run tonight but there’s [ A ] no place left to [ B ] hide
[ A ] Together Wendy we can [ A/G# ] live with the sadness
I’ll [ F#m ] love you with all the [ C#m/G# ] madness in my [ E ] soul   [ D ] Oh
[ A ] Someday girl I [ A/G# ] don’t know when we’re gonna [ 

The Simple Truth A Child Is Born chords – Chris De Burgh

 Chris de Burgh - The Simple Truth (A Child Is Born)
From his  Flying Colours (1988)
Comment for any corrections and please rate

The song The Simple Truth is a beautifull song Chris wrote in 1987.
4 years later in 1991 he was the centre stage of the global event 
"The Simple Truth Campaign" at the Wembley Arena in London which was raising money 
for the Kurdish refugees.


Capo 3

Verse 1:
             D G D 
A child is born on a battlefield,
            F#m G A 
A soldier boy falls to his knees,
               G F#m 
And a woman cries in joy and pain,
               A G D 
When will we live in peace again?

Verse 2:
             D G D 
A child is born where the wild wind blows,
               F#m G A 
In a country torn from the south to the north,
               G F#m 
And a family runs from day to day,
               A G Bm 
When will we see our home again?

Chorus:
               G F# 
When will we see the simple truth,
            Bm G 
The only thing that's worth a damn,
                 Em7 D A 
The life of a child is more than a forest,
                 Em7 D A 
The life of a child is more than a border, 
             Bm G Em7 D A 
Could ever be.

Verse 3:
             D G D 
A child is born in the desert sun,
         F#m G A 
A tiny life has just begun,
                G F#m 
And a mother cries for her hungry babe,
              A G D 
When will I feed my boy again?

Verse 4:
             D G D 
A child is born to an ordinary home,
          F#m G A 
East or west, it could be anyone,
                      G F#m 
But we all want to know, will my child survive to see the day,
          A G Bm 
When we will be secure again?

Chorus: 
               G F# 
When will we see the simple truth,
                 Bm G 
That the only thing that's worth a damn,
                 Em7 D A 
The life of a child is more than a forest, 
                 Em7 D A 
The life of a child is more than a border,
                 Em7 D A  
The life of a child is more than religion, 
                 Em7 D A Bm    
The life of a child is only a heartbeat from eternity,
            G Em7 D A 
We must believe, for the sake of humanity,
            G Em7 D A Bm G Em7 D A Bm G 
We must believe!!!
          Em7 D A Bm G Em7 D A G 
For the sake of humanity, we must believe.

Born In The Night Marys Child chords – Misc Christmas

 BORN IN THE NIGHT (MARY'S CHILD)
--------------------------------

Composed by Geoffrey Ainger.



 D Dmaj7 
Born in the night,

 Bm G 
Mary's Child,

   D G A7 
a long way from your home;

 D Dmaj7 
coming in need,

 Bm G 
Mary's Child,

 Em A7 D 
born in a borrowed room.


Clear shining light,
Mary's Child,
your face lights up our way;
light of the world,
Mary's Child,
dawn on our darkened day.


Truth of our life,
Mary's Child,
you tell us God is good;
prove it is true,
Mary's Child,
go to your cross of wood.


Hope of the world,
Mary's Child,
you're coming soon to reign;
King of the earth,
Mary's Child,
walk in our streets again.

Born A Man chords – Clem Snide

 ---------------------------------------------------------------------------
                 Clem Snide - Born a Man
---------------------------------------------------------------------------


E--0----4----0----0----0---------------------------------------------------|
B--7----5----0----2----0---------------------------------------------------|
G--8----6----1----1----1---------------------------------------------------|
D--6----6----2----2----2---------------------------------------------------|
A--7----4----0----0----2---------------------------------------------------|
E--0----4----2----0----0---------------------------------------------------|
 E7M9   C#m E/F# AM7 E 


This is based on an acoustic version that Eef plays live. I'm pretty sure the chords
are all correct, although the name for the first one might not be. 


E7M9            C#m     
The dog's chasing buzzards'
E7M9            C#m     
shadows across the deck.
 E/F# AM7      
Carving circles in the sky with
         E 
bibs tied around their neck.

E7M9            C#m     
And the lake was once a desert
E7M9            C#m     
where the houseboat ran aground.
 E/F# AM7      
A bright florescent jet ski had to
         E 
tow us back to town.
 E/F# AM7      
A bright florescent jet ski had to
         E 
tow us back to town.


E7M9            C#m     
Startled by the paper
E7M9            C#m 
and its unfamiliar slang.
 E/F# AM7      
It said the local beauty pageant winner
         E 
had been born a man.

E7M9            C#m     
They chased her through the wheat field.
E7M9            C#m     
They stripped her of her crown.
 E/F# AM7      
Desperate just to get their dusty
         E 
seed into the ground.
 E/F# AM7      
Desperate just to get their dusty
         E 
seed into the ground.

E7M9            C#m     
And you say there's no one in this world
E7M9            C#m     
no one who's truly free.
 E/F# AM7      
Every single one of us a
         E 
kitten up a tree.

E7M9            C#m     
Except for maybe surfers
E7M9            C#m     
and porn stars by degree.
 E/F# AM7      
Well i wonder if she loves her work as
         E 
as much as you love me.
 E/F# AM7      
I wonder if she loves her work as
         E 
as much as you love me.

E7M9            C#m     
They drained the fluid nightly
E7M9            C#m     
but by dawn it's there again.
 E/F# AM7      
The head nurse recommended that you
         E 
count backwards from ten.


E7M9            C#m     
And those who are the most afraid
E7M9            C#m     
say courage is a sin.
 E/F# AM7      
We are just bracing for the impact by
         E 
loosening our limbs.
 E/F# AM7      
We are just bracing for the impact by
         E 
loosening our limbs.

The Man Who Refused To Be Born chords – The Ropes

 F Dm 
You're waiting for the right time,
 Gm Bb F 
   'cause life can't pass you by.
                                Dm 
And here I am, having another worst year of my life.
 Gm Bb F 
   I was impulsive, wasn't I?

 Gm Dm 
   Baby, why are we always
  Bb Dm 
fighting over pennies when they say
 Gm Bb 
   the real money, the real money,
 Gm Bb 
   the real money, the real money
     F Gm 
is in war? No, no, don't go
        Dm Gm 
making enemies with a man
        Bb F 
who refuses to be born.

 Dm 
   You're waiting for the right sign,
 Gm Bb F 
   for stars to align.
                     Dm 
You could put me in any place or time,
 Gm Bb F 
   and I would still want to die.

 Gm Dm 
   Baby, why are we always
  Bb Dm 
fighting over pennies when they say
 Gm Bb 
   the real money, the real money,
 Gm Bb 
   the real money, the real money
     F Gm 
is in war? No, no, don't go
        Dm Gm 
making enemies with a man
        Bb F 
who refuses to be born.

 Gm Dm Bb Dm Gm Dm Bb Dm F Bb 
   The real money, the real money,
 F Bb 
   The real money, the real money,
 F Bb 
   The real money, the real money...
 F Gm Dm 
   Baby, why are we always
  Bb Dm 
fighting over pennies when they say
 Gm Bb 
   the real money, the real money,
 Gm Bb 
   the real money, the real money
     F Gm 
is in war? No, no, don't go
        Dm Gm 
making enemies with a man
        Bb F 
who refuses to be born.
          Gm Dm 
No, no, don't go -
          Gm Dm 
No, no, don't go -
          Gm Dm 
No, no, don't go -
     Gm Bb 
no, no, don't go. The man who refuses
 Gm Bb 
   the man who refuses
     Gm Dm 
the man who refused to be born
          Gm Bb F 
and the girl who wants to die:
 Bm 
perfect for each other.

Hope Was Born This Night chords – Sidewalk Prophets

 Hope Was Born This Night
Sidewalk Prophets 
Key =  G  
 
Intro :  G C Em D  (x3) 
  C D G  
 
Verse 1 : 
    G C G C G D  
Tonight I can see a star shine and its splendor fills up the sky 
           Em7 C G  
It’s the same that appeared and the wise men revered 
        C D G  
When hope was born this night 
       Em C G C G D  
Out upon the snowy fields, there’s a silent peace that heals 
          Em7 C G  
And it echoes the grace of our Savior’s embrace 
          C D G  
Because hope was born this night 
 
Chorus : 
    C G Em7 D  
Glory to God in the highest 
   C G Em7 D  
Peace on Earth, goodwill toward men 
      C G Em7 D  
Let all of the world sing the chorus of joy 
          C D G  
Because hope was born this night  
 
Verse 2 : 
        Em C G C G D  
I can hear the Christmas bells ringing as softly a church choir sings 
           Em7 C G  
It’s the song used to praise the ancient of days 
       C D G  
When hope was born this night 
             Em C G C G D  
There are angels in this place and my heart resounded the praise 
           Em7 C G  
Like a shepherd so scared, I’ll rejoice and declare 
        C D G  
That hope was born this night 
 
Chorus 
Bridge : 
 Em D/F# G C Em D/F#  
 Gloria, Gloria (x4) 
 
Chorus x2

Born To Die intro Tabs by Lana Del Rey

 Hi, this is my first tab and honestly I only started playing guitar like a week ago.
Here is my rendition of Lana Del Rey's Born To Die intro. Sorry if I did this wrong. :( Lo siento.

e|- - - -0 - - - - - - - |
B|- 0 1 3 - 0 - - - - - -|
G|- - - - - - 0 - - - - -|
D|- - - - - - - 7 5 4 2- |
A|- - - - - - - - - - - -|
E|- - - - - - - - - - - -|

Yup, it's that simple.

The Silkie – Born To Be With You chords

 Born To Be With You:The Silkie.
#133 on BB Hot (Bubbling Under) 100
on FONTANA REcords in 1966.

INTRO: 
 F C C6 F F7 Bb 
Doo-doo-doo..doo-doo-doo..doo-doo-doo-doo-
 Bbm7 
doo..
 Bbm7 F C C6 F 
Doo-doo-doo-doo-doo-doo-doo-doo-doo-doo.

#1.
 F C C7 F 
By your side..sat..is..fied.. 
 F7 Bb Bbm7 
through and through..
             F C C6 F 
cause I was born to be with you. 
  
#2.
 F C C7 F 
Wondrous..ly, love can see.. 
 F7 Bb Bbm7 F C C6 F 
so..ooo I knew...that I was born, to be with you. 

CHORUS:
 F C C6 F F7 Bb 
Doo-doo-doo..doo-doo-doo..doo-doo-doo-doo-
 Bbm7 
doo..
 Bbm7 F C C6 F 
Doo-doo-doo-doo-doo-doo-doo-doo-doo-doo.

#3.
 F C C7 F 
Do..ooo I find..peace of mind? 
 F7 Bb Bbm7 F C C6 F  
Yes, I do....cause I was born, to be with you. 
  
OUTRO::
 F C C6 F F7 Bb 
Doo-doo-doo..doo-doo-doo..doo-doo-doo-doo-
 Bbm7 
doo..
 Bbm7 F C C6 F 
Doo-doo-doo-doo-doo-doo-doo-doo-doo-doo..(Fade.)


  
A sixties smash from Kraziekhat.

Born On A Horse Tab by Biffy Clyro

-------------------------------------------------------------------------------
			     Born on a Horse - Biffy Clyro
-------------------------------------------------------------------------------
Tabbed by: Andy
Email: andy_rhcp@hotmail.co.uk

Tuning: Drop D

Clean
e|--------------------------------------------------------------------------|
B|--------------------------------------------------------------------------|
G|--------------------------------------------------------------------------|
D|--------------------------------------------------------------------------|
A|-6-6-6-6-6-6-6-6-6-6-6-6-6-6-6-6/-----------------------------------------|
D|--------------------------------------------------------------------------|

e|--------------------------------------------------------------------------|
B|--------------------------------------------------------------------------|
G|---------------------------------6-6-6-6-6-6-6-6-6-6-6-6------------------|
D|-6-6-6-6-6-6-6-6-6-6-6-6-6-6-6-6------------------------------------------|
A|--------------------------------------------------------------------------|
D|--------------------------------------------------------------------------|

e|--------------------------------------------------------------------------|
B|--------------------------------------------------------------------------|
G|---------------------------------8-8-8-8-8---8----------------------------|
D|-4-4-4-4-4-4-4-4-4-4-4-4-4-4-4-4-6-6-6-6-6-5-6----------------------------|
A|--------------------------------------------------6-6-6-------------------|
D|--------------------------------------------------------------------------|

e|--------------------------------------------------------------------------|
B|--------------------------------------------------------------------------|
G|---8-8-8---------13-13-13---------4-4-4--------11-11-11-----11-11-11------|
D|-6-------6----11----------11----2-------2----9----------9-8----------8----|
A|--------------------------------------------------------------------------|
D|--------------------------------------------------------------------------|

e|--------------------------------------------------------------------------|
B|--------------------------------------------------------------------------|
G|---8-8-8---------13-13-13---------6-6-6--------11-11-11-----11-11-11------|
D|-6-------6----11----------11----4-------4----9----------9-8----------8----|
A|--------------------------------------------------------------------------|
D|--------------------------------------------------------------------------|

Distortion
e|--------------------------------------------------------------------------|
B|--------------------------------------------------------------------------|
G|--------------------------------------------------------------------------|
D|-9-9-9-9-9-9-9-9-9-9-9-6-6-6-6-6-6-6-6-6-6-11-11-14-14-13-13-11-11-13-13--|
A|-9-9-9-9-9-9-9-9-9-9-9-6-6-6-6-6-6-6-6-6-6-11-11-11-11-11-11-11-11-11-11--|
D|-9-9-9-9-9-9-9-9-9-9-9-6-6-6-6-6-6-6-6-6-6-11-11-11-11-11-11-11-11-11-11--|

e|--------------------------------------------------------------------------|
B|--------------------------------------------------------------------------|
G|--------------------------------------------------------------------------|
D|-14-14-14-14-14-16-16-16-16-16--------------------------------------------|
A|-14-14-14-14-14-16-16-16-16-16--------------------------------------------|
D|-14-14-14-14-14-16-16-16-16-16--------------------------------------------|

e|--------------------------------------------------------------------------|
B|--------------------------------------------------------------------------|
G|--------------------------------------------------------------------------|
D|-6-6-6-6-6-11-11-11-11-11-2-2-2-2-2-9-9-8-8-------------------------------|
A|-6-6-6-6-6-11-11-11-11-11-2-2-2-2-2-9-9-8-8-------------------------------|
D|-6-6-6-6-6-11-11-11-11-11-2-2-2-2-2-9-9-8-8-------------------------------|

e|--------------------------------------------------------------------------|
B|--------------------------------------------------------------------------|
G|--------------------------------------------------------------------------|
D|-6-6-6-6-6-11-11-11-11-11-4-4-4-4-4---------------------------------------|
A|-6-6-6-6-6-11-11-11-11-11-4-4-4-4-4---------------------------------------|
D|-6-6-6-6-6-11-11-11-11-11-4-4-4-4-4---------------------------------------|

Clean
e|--------------------------------------------------------------------------|
B|-------------9------------------------------------------------------------|
G|--------------------------------------------------------------------------|
D|-6-6-6-6-4-6--------------------------------------------------------------|
A|--------------------------------------------------------------------------|
D|--------------------------------------------------------------------------|

| /  slide up
| \  slide down
| h  hammer-on
| p  pull-off
| ~  vibrato
| +  harmonic
| x  Mute note
===============================================================================