Tag: breaking

Blow Me Away Tabs – Breaking Benjamin V5

 Song: Blow Me Away
 Halo 2 Original Soundtrack
Artist: Breaking Benjamin
Release Date: November 3, 2004



Guitar 1: Rhythm
Guitar 2: Lead

Intro:
Guitar 1 and 2(Guitar 2 with octave generator)
D|------------------------------------------------------------
A|------------------------------------------------------------
F|------------------------------------------------------------
C|-0--12-0-12--0--12-0-12--0-10--0--12-0-12--0--12-0-12--7/10-
G|-0-----------0-----------0-10--0-----------0-----------7/10-
C|-0-----------0-----------0-10--0-----------0-----------7/10-

D|---------------------------------------------------------------
A|---------------------------------------------------------------
F|---------------------------------------------------------------
C|-0-0--12-0-12--0--12-0-12--0-10--0-0--12-0-12--0--12-0-12------
G|-0-0-----------0-----------0-10--0-0-----------0---------------
C|-0-0-----------0-----------0-10--0-0-----------0-----------3-2-

Verse:
Guitar 1
D|------------------------------------------------------------
A|------------------------------------------------------------
F|------------------------------------------------------------
C|-0----------------------------------------------------------
G|-0----------------------------------------------------------
C|-0----------------------------------------------------------

Guitar 2
D|--------------------------10-------------------------17-----
A|-----------------------------10-------------------20--------
F|-----------------------12----------------------19-----------
C|-0------------------12----------------------19--------------
G|-0----------------------------------------------------------
C|-0----------------------------------------------------------

Pre-Chorus pt. 1:
Guitar 1
D|-------------------------------------------------------------------------------
A|-------------------------------------------------------------------------------
F|-------------------------------------------------------------------------------
C|-8--8--8--8--8--8--8--8--10-10-10-10-10-10-10-10-0-0----0-0---0-0-0---0-0--7/10-
G|-8--8--8--8--8--8--8--8--10-10-10-10-10-10-10-10-0-0----0-0---0-0-0---0-0--7/10-
C|-8--8--8--8--8--8--8--8--10-10-10-10-10-10-10-10-0-0--0-0-0---0-0-0-0-0-0--7/10-
                                                      pm-           pm-
Guitar 2
D|--------------------------------------------------------------------------------
A|--------------------------------------------------------------------------------
F|-10-10-10-10-10-10-10-10-12-12-12-12-12-12-12-12-7/14---9/11--7/14----9/11--7---
C|-8--8--8--8--8--8--8--8--10-10-10-10-10-10-10-10--------------------------------
G|-8--8--8--8--8--8--8--8--10-10-10-10-10-10-10-10-5/12---7/9---5/12----7/9---5---
C|-8--8--8--8--8--8--8--8--10-10-10-10-10-10-10-10--------------------------------

Pre-Chorus pt. 2:
Guitar 1
D|-------------------------------------------------
A|-------------------------------------------------
F|-------------------------------------------------
C|-8--8--8--8--8--8--8--8--10-10-10-10-10-10-10-10-
G|-8--8--8--8--8--8--8--8--10-10-10-10-10-10-10-10-
C|-8--8--8--8--8--8--8--8--10-10-10-10-10-10-10-10-
                                                   
Guitar 2
D|-------------------------------------------------
A|-------------------------------------------------
F|-10-10-10-10-10-10-10-10-12-12-12-12-12-12-12-12-
C|-8--8--8--8--8--8--8--8--10-10-10-10-10-10-10-10-
G|-8--8--8--8--8--8--8--8--10-10-10-10-10-10-10-10-
C|-8--8--8--8--8--8--8--8--10-10-10-10-10-10-10-10-

Chorus:
Guitar 1(2x)
D|-------------------------------------------------------------------------
A|-------------------------------------------------------------------------
F|-------------------------------------------------------------------------
C|-0----0-----7--8-8-5---5----5/////12-0----0-----7--8-8-10---10---10-0-10-
G|-0----0-----7--8-8-5---5----5/////12-0----0-----

Saturate chords – Breaking Benjamin

 -------------------------------------------------------------------------------
                             Saturate - Breaking Benjamin
-------------------------------------------------------------------------------
: kerk12 (Same on Steam)
 kerk12gr

Tuning: Half Step Down (Eb Ab Db Gb Bb Eb)
All the chords are relative to the tuning.

A good song by one of my favourite bands, Breaking Benjamin! I couldn't find any 
chords/tabs anywhere, so I thought I should accept the challenge(not really a challenge but 
whatever...). Please rate/fav/comment :D.

[Intro]: (Just pluck the open strings together, as in the tab.)
eb|--0--0-----0--0--------0--------0----------------|
Bb|--------------------0--------0-------------------|
Gb|-------------------------------------------------|
Db|-------------------------------------------------|
Ab|--0--0-----0--0----------------------------------|
Eb|--------------------0--0-----0--0----------------|
(Then the chord progression starts...)

[Intro Chords]:
 A         ( B )    E A         ( B )    E 

[Verse 1]
        A                   ( B )    E 
Do you know that I could never leave you?
         A              ( B )   E 
And you know I could never beat you?
        A              ( B )    E A                 ( B )  E 
And if i, if I could never find you nevermind, I would not forget you.

[Chorus]:
    C#m E A 
Can I  stay alive forever?
    C#m E A 
Can I  stay alive forever?
    C#m E A 
Can I  stay alive forever?
    E 
Forever.

[REPEAT INTRO CHORDS]:
 A         ( B )    E 

[Verse 2]
       A              ( B )  E 
Can I feel a chemical reaction?
           A              ( B )   E 
Because I feel a hideous Attraction
       A               ( B )  E 
Could we share a poison apple?
          A         ( B )     E 
Could it be maniacle and awful?

[Chorus]:
    C#m E A 
Can I  stay alive forever?
    C#m E A 
Can I  stay alive forever?
    C#m E A 
Can I  stay alive forever?
    E A 
Forever. Forever
               E 
Stay alive forever
  A     (Palm mute, and if you have an electric, switch to power chords)
Forever
               E 
Stay alive forever
               A 
Stay alive forever
               E 
Stay alive forever
               A 
Stay alive forever

[Outro Solo]:
eb|--------------------------------------------------------------------------------------|R
Bb|--------------------------------------------------------------------------------------|E
Gb|--9-9-9-11-11-11-13-13-9-9-9-11-11-11-13-13-14-13--14-13--14-13--14-13-16-16-16-|P 2--|
Db|--x-x-x-x--x--x--x--x--x-x-x-x--x--x--x--x--x--x---x--x---x--x---x--x--x--x--x--------|E X
Ab|--7-7-7-9--9--9--11-11-7-7-7-9--9--9--11-11-12-11--12-11--12-11--12-11-14-14-14-------|A
Eb|--------------------------------------------------------------------------------------|T

               E ~~~
Stay alive forever

Dont Go Breaking My Heart chords – Elton John V4

 Artist: Elton John and Kiki Dee
Song: Dont Go Breaking My Heart


Intro:   D Bm G A D  x 2


Verse 1

 D G 
Don't go breaking my heart
 D G 
I couldn't if I tried
 D F#7 G E7 
Oh honey, if I get restless
 D G A G A D   
Baby, you're not that kind


Verse 2

 D G 
Don't go breaking my heart
 D G 
You take the weight off of me
 D F#7 G E7 
Oh honey, when you knock on my door
 D G D G A 
Ooh, I gave you my key


Chorus

 F#m F#m7 Am Am7 
Oooo-oooo... nobody knows it!
 G D 
But when I was down
 A E 
I was your clown
 F#m Am7 
Oooo-oooo... nobody knows it (nobody knows)
 G D 
Right from the start
    A E 
I gave you my heart
 F A 
Oooo-oooh
               G D G A 
I gave you my heart.


Bridge 1

 D Bm A G 
So don't go breaking my heart
            A D A Bm A 
I won't go breaking your heart
 G A D A D    
Don't go breaking my heart!


Verse 3

 D G 
And nobody told us
 D G 
`Cause nobody showed us
 D F#7 G E7 
And now it's up to us babe
 D G A G A D   
Oh I think we can make it


Verse 4

 D G 
So don't misunderstand me
 D G 
You put the light in my life
 D F#7 G E7 
Oh, you put the spark to the flame
 D G A G A   
I've got your heart in my sights


Chorus 

 F#m F#m7 Am Am7 
Oooo-oooo... nobody knows it!
 G D 
But when I was down
 A E 
I was your clown
 F#m Am7 
Oooo-oooo... nobody knows it (nobody knows)
 G D 
Right from the start
   A E 
I gave you my heart
 F A 
Oooo-oooh
               G D G A 
I gave you my heart.


Bridge

 D Bm A G 
So don't go breaking my heart
            A D A Bm A 
I won't go breaking your heart
 G A D A D   
Don't go breaking my heart


Instrumental

 D G D G D F#7 G E7 D G G 



Chorus 2

 F#m F#m7 Am Am7 
Woooo-hoooo... nobody knows it!
 G D 
But when I was down
 A E 
I was your clown
 G D 
Right from the start
   A E 
I gave you my heart
 F A 
Oooo-oooh
               G D G A</

Dance With The Devil chords – Breaking Benjamin V2

 It's corrected version of TheBedmasters chords. Thanks :)


 Em C 
Here I stand, helpless and left for dead
         Em C 
(Both distorted guitars riff)

 Em C 
Close your eyes, so many days go by
         Em 
Easy to find what's wrong
             C 
Harder to find what's right
     Em 
I believe in you
                            C 
I can show you that I can see right through
                         Em 
All your empty lies, I won't stay long
           C 
In this world so wrong


         Em D 
Say goodbye,
         C Em D 
As we dance with the devil tonight
            C Em D 
Don't you dare look at him in the eye
         C Em D C 
As we dance with the devil tonight

    Em C 
Trembling, crawling across my skin
               Em 
Feeding your cold, dead eyes
              C 
Stealing the life of mine

        Em 
I believe in you
                           C 
I can show you that I can see right through
                       Em 
All your empty lies, I won't last long
          C 
In this world so wrong


         Em D 
Say goodbye,
         C Em D 
As we dance with the devil tonight
            C Em D 
Don't you dare look at him in the eye
         C Em D C 
As we dance with the devil tonight

 Em C 
Hold on
 Em C 
Hold on


During solo play this:
 Em , D , C  /x3
 C , D , Em Em D 
Say goodbye,
         C Em D 
As we dance with the devil tonight
            C Em D 
Don't you dare look at him in the eye
         C Em D C 
As we dance with the devil tonight


 Em C 
Hold on
 Em C 
Hold on

(You can add  C D Em  as the ending)

Breaking You chords – Audrey Assad V2

 "Breaking You"
By: Audrey Assad
: Paul Stranieri - Thanks Audrey!

Capo 3 Key C

Intro:  A A5 A A5 D5  Bm11  D5  

Verse 1
                 A A5 A  
You've been let down,   it's true
                 Bm 
Your pain is so easy to see
                   D5 
You're haunted by your history
        E7sus4 A A5 Asus4 
And it feels like you've got no escape

Verse 2
                    A A5 A 
Your life left you high  and dry
                Bm 
You used to be sure of yourself
                     D5 
But then your whole world went to hell
     E7sus4 A Asus4 A 
And tomorrow looks just like today

Chorus
                    D 
So you lie on your bed
                                A A5 Asus4 
you won't let the morning come in
                      D 
And you hide in your room
                                    A Asus4 A 
feeding that fear and it's killing you
                                     Bm 
Don't you know that it's killing me too
            E7sus4 A A5 E7sus4 
cause your heart break is breaking you,   hey

Verse 3
            A A5 A 
I miss the life  in your eyes
                 Bm 
The home that I found in your arms
                   D5 
And now you don't know who you are
     E7sus4 A Asus4 A 
But I won't give up on you,      No

Repeat Chorus

Bridge

 D5/A  D5addG#  D A Bm A E7sus4 F#m D5/A  D5addG#  D A Bm A E7sus4 
And you lost your fire
          F#m D 
And your flame's gone out
          A D A Bm 
And your down on your knees
                    F#m D D5 A D A Bm E7sus4 
Cause your life is not what you thought it would be

Verse 3
              A Asus4 
Lift up your head
 A D D5 D 
Help is on the way
                       A Asus4 
And it won't pass you by
     A E7sus4 
You just gotta reach out a hand

Verse 4
              A Asus4 
Lift up your eyes
 A D D5 D 
Love is on the way
                       A Asus4 
And it won't pass you by
     A E7sus4 
You just gotta reach out your hand

Verse 5
              A Asus4 
lift up your head
 A D D5 D 
cause love is on His way
                   A Asus4 
He won't pass you by
        A E7sus4 
You've just gotta reach out a hand

Outtro

 F#m D  DaddG#  D5/A  D5addG#  D A Bm A E7sus4  E7sus4addD

 F#m D  DaddG#  D5/A  D5addG#  D A Bm A E7sus4

Thank You For Breaking My Heart chords – Alexz Johnson

 Thank You For Breaking My Heart by Alexz Johnson
2013


Standard Tuning
No Capo


Chords:

 C :     x32010
 Gm :    355333
 Am :    x02210
 Bb :    x13331
 F :     x33211 or 133211
 D7 :    xx0212
 E7 :    020100


 C Gm 
 You never took my side
                      Am 
 Never let me shine

 It was never the truth
   Bb F 
 Lies, lies

 C Gm 
 Let me believe 

 That you'll never leave
                  Am 
 I thought I had nothing to lose
   Bb F 
 Why, why

       C G                        
 Now here I am, singing the blues


                F    ( C )       E7 Am 
 But I wanna thank you for letting me down
           F             ( C )        E7 Am 
 Cause I won't fall as hard the next time around
          F D7 G Am 
 I know life isn't fair, and you told me to suffer the scars
                F C G      ( F )
 But I wanna thank you for breaking my heart


 C Gm 
 I let you inside

 I treated you kind
     Am Bb F 
 I wait for you every time and time

 C Gm 
 And I should've known 

 I'd be better alone
       Am 
 But none of it was real
          Bb F 
 I was blind, blind

       C G 
 Now here I am, singing the blues


                F    ( C )       E7 Am 
 But I wanna thank you for letting me down
           F             ( C )        E7 Am 
 Cause I won't fall as hard the next time around
          F D7 G Am 
 I know life isn't fair, and you told me to suffer the scars
                F C G      ( F )
 But I wanna thank you for breaking my heart


 E7 Am 
 If you hadn't left me hurting so bad
 E7 Am 
 No, I'd never know how strong I am
 E7 Am 
 I wouldnt be ready to meet somebody new
     F G 
 A real man


                F    ( C )       E7 Am 
 But I wanna thank you for letting me down
           F             ( C )        E7 Am 
 Cause I won't fall as hard the next time around
          F D7 G Am 
 I know life isn't fair, and you told me to suffer the scars
                F C G      ( F )
 But I wanna thank you for breaking my heart
            F C G F C 
 I wanna thank you for breaking my heart


 End on  C