Tag: brides

Goodbye Agony Tabs – Black Veil Brides

 guitar1:(2x)
|----------------------------------------------------------------------------------------------------------|
|--------2---3-----------------2---------------------------2-----3-----------------------------------------|
|------4-------------------4-------4-----------------4-------------------------------3--------4-----/6-----|
|----------------------------------------------------------------------------------------------------------|
|----2-----------------------------------------------------------------------------------------------------|
|---------------------5--------------------2---------------------------------4-----------------------------|

guitar2:
|----------------------------------------------------------------------------------------------------------|
|------12----------------------------------------------------------------11----------12----------14--------|
|----------------11------12------11------12-------\9------------12-----------------------------------------|
|----------------------------------------------------------------------------------------------------------|
|----------------------------------------------------------------------------------------------------------|
|----------------------------------------------------------------------------------------------------------|

Intro/Chorus lead part 1:
|---------------------------------------------------------------------14-----------------------------------|
|---12---------12---14---15b----------12---14----15--15b--15b---14--------14----12------11---12------------|
|----------11-----------------------11---------------------------------------------------------------------|
|----------------------------------------------------------------------------------------------------------|
|----------------------------------------------------------------------------------------------------------|
|----------------------------------------------------------------------------------------------------------|

|---------------------------------------------------------------------14-----------------------------------|
|---12---------12---14---15b----------12---14----15--15b---15b---14--------14----12----11---12b------------|
|--------11-----------------------11-----------------------------------------------------------------------|
|----------------------------------------------------------------------------------------------------------|
|----------------------------------------------------------------------------------------------------------|
|----------------------------------------------------------------------------------------------------------|

Chorus Lead part2:
|----------------------------------------------------------------------------------------------------------|
|------12--------------------------------------------------------------11----------12------------14--------|
|-------------11------12------11-----12----11-----12------9-----12-----------------------------------------|
|----------------------------------------------------------------------------------------------------------|
|----------------------------------------------------------------------------------------------------------|
|----------------------------------------------------------------------------------------------------------|
solo:

|---14b---14b---12-10---14p10---------------------10------------------14p10--------------------------------|
|--------------------------------12--10--12-------------14--12--14------------12---------------------------|
|----------------------------------------------------------------------------------------------------------|
|----------------------------------------------------------------------------------------11----12b---------|
|----------------------------------------------------------------------------------------------------------|
|--------------------------------------------------------------------------------------------------

Overture Tabs – Black Veil Brides

 So this is my first tab and I'm not sure if this is right or not but I'm just a beginner so I don't have much 
experience.
Anyways...... I hope you enjoy it :)




e|-1-0------1-0------1-0---------------------------------------|
B|-----3--------3--------3---------------0------------0--------|
G|-------2--------2--------2-----------2----2-------2---2------|
D|----------------------------3-2-0--0---------3--3-------3----|
A|-------------------------------------------------------------|
E|-------------------------------------------------------------|


e|---------------------5-7-5-----5-7-5----------5-3------------|
B|---------------------------6~--------6-3--3-6-----6-6--------|
G|-------2----------2------------------------------------------|
D|-3-0-3---5-3--3-5--------------------------------------------|
A|-------------------------------------------------------------|
E|-------------------------------------------------------------|


e|-3~-5-3-5-7-8---7-5-7-5---10--10-8-5—5~-3-5--3---3-5-3-5-7-8-|
B|------------------------3----------------------6-------------|
G|-------------------------------------------------------------|
D|-------------------------------------------------------------|
A|-------------------------------------------------------------|
E|-------------------------------------------------------------|


e|-7-5-7-5---10—10~-8-5—5~-3-5--3-1-3-5---5--5-7-5-5--5-7-5-5--|
B|---------3----------------------------3----------------------|
G|-------------------------------------------------------------|
D|-------------------------------------------------------------|
A|-------------------------------------------------------------|
E|-------------------------------------------------------------|


e|-5-7-5-5--5-7-5-5--5-7-3-5--3---3-5---5--5-7-5-5--5-7-5-5----|
B|------------------------------6-----3------------------------|
G|-------------------------------------------------------------|
D|-------------------------------------------------------------|
A|-------------------------------------------------------------|
E|-------------------------------------------------------------|

e|-5-7-3-5--3---3-5-5-5--5---3-5------3-5-7-5--3---3~----0---0-|
B|------------6------------6------3-6------------6-----3---6---|
G|-------------------------------------------------------------|
D|-------------------------------------------------------------|
A|-------------------------------------------------------------|
E|-------------------------------------------------------------|


e|-0---------------------------8-8-8-8-7----8-8-8-8-7---3------|
B|---3-1--------0------------------------6------------6--------|
G|------------2---2--------------------------------------------|
D|--------3-5-------5—-3~-5-0----------------------------------|
A|-------------------------------------------------------------| 
E|-------------------------------------------------------------|




e|-5-7-5-3---3--3-3~-5--5-5-5---3--5---8-8—-8~-5-7-------------|
B|---------6------------------6------6-------------------------|
G|-------------------------------------------------------------|
D|-------------------------------------------------------------|
A|-------------------------------------------------------------|
E|-------------------------------------------------------------|

e|-7-5-3---0-6--------------0----------------0-----------------|
B|-------3----------------3---6------------3---6---------------|
G|-------------------------------------------------------------|
D|----------------0-2-3-2----------0-2-3-2---------------------|
A|-------------0----------------0----------------0-------------|
E|-------------------------------------------------------------|

e|-----------0--------9-10~-10---------------------------------|
B|---------3---6-3--6------------------------------------------|
G|-------2-----------------------------------------------------|
D|-0-2-3-------------------------------------------------------|
A|--------------------------------------

Rebel Love Song Acoustic chords – Black Veil Brides

 This song I tried to figure out myself for an acoustic version my band is doing. Hope
these work out for you, if you suggest any changes, let me know please! 

Capo 1st Fret

Rebel Love Song-BVB

(VERSE 1)

 Am F Am 
I cannot hide what's on my mind
           G 
I feel it burning deep inside.
 Am F Am 
     A passion crime to take what's mine
              Dm/C 
Let us start living for today.

(BRIDGE)

 Am 
Never gonna' change my mind

 F     We can leave it all behind

 C     Nothin's gonna' stop us
    G 
No not this time

(CHORUS)

     Am G 
So take your hand in mine
              C 
It's ours tonight
              F 
This is a rebel love song
   Am G 
Hearts will sacrifice
             C 
It's do or die
            F 
This is a rebel love song.

(lightly hold the strings around 12th fret and strum a few beats)

(VERSE 2)

 Am F Am 
My outlaw eyes have seen their lies
             G 
I choke on all they had to say
 Am F Am 
When worlds collide what's left inside
             Dm/C 
I hold on tight and hear you pray

(BRIDGE [exactly the same as the first time])

Never gonna' change my mind
We can leave it all behind
Nothin's gonna' stop us
No not this time

(CHORUS[the same])

So take your hand in mine
It's ours tonight
This is a rebel love song

Hearts will sacrifice
It's do or die
This is a rebel love song


 Am F 
Wild and running for one reason
 Am G 
They can't stop us from our freedom
(Wild and running for one reason
They can't stop us from our freedom)

(SAME EXCEPT STRUM PALM MUTED)
Never gonna' change my mind
We can leave it all behind
Nothin's gonna' stop us
     G  let ring out
No not this time

(the rest is exactly the same and repeats)

So take your hand in mine
It's ours tonight
This is a rebel love song

Hearts will sacrifice
It's do or die
This is a rebel love song

So take your hand in mine
It's ours tonight
This is a rebel love song

Hearts will sacrifice
It's do or die
This is a rebel love song


I hope this helped! :) Like i said, if there's anything I could/should change, just let
me know.

Chemical Kids And Mechanical Brides chords – Pierce The Veil V3

 This may not completely match up when playing with the song, but when played alone 
I think this sounds pretty good.

Standard tuning
Capo 6

Intro:  Em Em Am7 
Like a rush shot through you
 Em Am7 Am 
Everyone is watching you
 Em 
Told you why I see no need for the sun
(I've found a reason to say)
 C Am 
A love you light is a love soon gone
 Em 
If this is it, don't bother 'cause this love is a lie
 C Am Em C Am D 
I'm a chemical kid, you're a mechanical bride

 Em 
(When every vein is red out of the blue)
                         C Am7 Am    
I held a diamond to the sun to count the moments on account of the way you
 Em D C 
Smile, smile for me
                               Am 
Oh, we're in slow motion when you
 Em D C 
Smile, smile for me

                          Am7 
But oh my God I've been looking
              Em C Am 
But I still hold your breath so you won't leave
 Em 
Pastel red and porn-star white
 C Am D C 
Ghost on the altar, we breathe don't leave

 Am7 C 
Say that the night sings alone
              Em C Am 
If there's a God then I'm letting him go
         C 
All for you
      Em 
You alone
           C Em 
Raise my hands, at the thought of you leaving me alone
 C Am7 Am 
Don't torture me, or beg me
         Em D 
Can you make me believe in tiring

 C Am7 Am 
As you fall fast asleep it reminds me
        Em Am7 Am 
Of the slow symphonies behind me
         C Am7 Am 
All the nightmares you'll see tomorrow
         Em Am7 Am C 
All the stars on your ceiling, they glow but not for you
 C Am7 D7 
Through the trees I'll blow

~~~

You can replace the last chord with an Am7 but I like to play it as D7.
Alright hope this isn't too bad.