Tag: Bridge

Id Build A Bridge chords – Glen Campbell

 I'd Build A Bridge
Glen Campbell

Intro   G Am C Bm Am G Bm G C D G 

Verse 1

      Bm C D G 
As I sift through the ashes
            Bm C D G 
of bridges burned and broken dreams
            D Em D 
If I could only find the pieces
             C Am G F#m Em 
I'd build a bridge that would bring you back to me
     D C D G Bm G C D G 
I'd build a bridge that would bring you back to me

Verse 2

            Bm G C D G    
If I could take the past and change it
           Bm G C D G 
to what I wanted it to be
         Bm Em D 
I would mold and I would shape it
        C D G F#m Em  
into a bridge that would bring you back to me
     D C D G D   
I'd build a bridge that would bring you back to me

Chorus 1

 G Bm Em G 
Oh, I'd build a bridge made of love
           C G 
A love so strong that no one
            Am D 
could ever shake it
 G Bm Em D        
Oh, I'd build a bridge made of stone
             C Bm 
and I would stand and defend it
     Am Bm C D 
And never let it fall

Verse 3

 G Bm C D G 
   Though the walls may be crumbled
           Bm C D G 
the cornerstone is planted deep
             Bm Em D 
and it will gladly hold the pieces
        C D G F#m Em 
to the bridge that would bring you back to me
      G C D G D  
I'll build a bridge that will bring you back to me

Chorus 2

 G Bm Em G   
Oh, I'll build a bridge made of love
           C Bm 
a love so strong that no one
            Am C D    
could ever shake it, yeah
 G Bm Em G 
Oh, I'll build a bridge made of stone
            C Bm G C D 
and I will stand and defend  itttt, yeah
 G Bm Em D 
Oh, I'll build a bridge made of love
            C Bm 
a love so strong that no one
    G Am D 
could ever shake it, yeah
 G Bm Em D 
Oh, I'll build a bridge made of stone
            C G Am D G F#m D Em D C G Am 
and I will stand and I'll defend it, yeah 

flyinglibra51
God Bless Glen Travis Campbell

Warner Mack – The Bridge Washed Out chords

 The bridge washed out - Warner Mack

Composers: Jimmy Louis, Sandra Smith, Mart Melshee
Label: Decca

#1 country hit in 1965

Also recorded by George Jones and Ricky Nelson


Intro:
 A D 
 Bridge washed out and I can't swim
 D A E7 A 
And my baby's on the other side

#1:
 A 
When I awoke this mornin' the rain was a-pourin' down
 A D A 
I was gonna wed a little river girl just over the bridge across town
 A D 
Now I'm a-runnin' up and down the river and my nerves are drivin' me wild
 D A D 
Because the bridge washed out and I can't swim
 D A E7 A       
And my baby's on the other side

#2:
 A   
Rain, oh rain stop a fallin', dark clouds hurry from the sky
 A D A 
The preacher and my bride's a waitin' and my weddin' bells are startin' to chime
 A D 
I can't kiss and hold her and it's a-drivin' me outta my mind
 D A D 
'cause the bridge washed out and I can't swim
 D A E7 A       
And my baby's on the other side


Instrumental bridge:

 A D A 

#3:
 A 
And now I've got one foot in the water but one foot's solid on the ground
 A D A 
I'd try to swim that ragin' old river but I know if I try I'll drown
 A D 
There's not a boat around me they've all gone out with the tide
 D A D 
And the bridge washed out and I can't swim
 D A E7 A       
And my baby's on the other side


#4:

 A   
Rain, oh rain stop a fallin', dark clouds hurry from the sky
 A D A 
The preacher and my bride's a waitin' and my weddin' bells are startin' to chime
 A D 
I can't kiss and hold her and it's a-drivin' me outta my mind
 D A D 
'cause the bridge washed out and I can't swim
 D A E7 A       
And my baby's on the other side



Outro
 A D 
Yeah the bridge washed out and I can't swim
 D A E7 A   
And my baby's on the other side

Break Away Speed chords – Kim Richey

 -------------------------------------------------------------------------------
                       BREAKAWAY SPEED - Kim Richey
-------------------------------------------------------------------------------
: rdcoons
 gnr123
Tuning: Half-Step Down

Intro: A
[Verse 1]
 A D A 
She could've made a river, but she had to make rain
                                  D A 
Once it started falling, it was never the same
 E D A 
Forty days running, forty nights long
 E D A E 
Water kept on coming till the valleys were gone... gone

[Chorus]
     D A E 
She said it's alright, took me where she left me
  A E F#m 
Turned around, went away, breakaway speed
   D A E 
Never looked back, said she won't forget me
  A E F#m 
Turned around, went away, breakaway speed
  D A 
Breakaway speed

[Verse 2]
 ( A )                          D A 
Would've come running but I couldn't keep up
                                  D A 
She counted all her blessings but it wasn't enough
            E D A 
They were hiding in the shadows where it's never quite clear
 E D A 
She wants something better that she couldn't find here
          E 
Couldn't find here

[Chorus]
     D A E 
She said it's alright, took me where she left me
  A E F#m 
Turned around, went away, breakaway speed
   D A E 
Never looked back, said she won't forget me
  A E F#m 
Turned around, went away, breakaway speed
  D A 
Breakaway speed

[Solo]
 A D A  x2

[Bridge]
   E A E A 
I think of her, when the sun goes down
      E A D E 
and falls behind, the edge of town

 D E  x2

[Chorus]
     D A E 
She said it's alright, took me where she left me
  A E F#m 
Turned around, went away, breakaway speed
   D A E 
Never looked back, said she won't forget me
  A E F#m 
Turned around, went away, breakaway speed
  D A 
Breakaway speed
  D A 
Breakaway speed
  D A 
Breakaway speed

 D A 


-------------------------------------------------------------------------------
                       BREAKAWAY SPEED - Kim Richey
-------------------------------------------------------------------------------
Tuning: Standard 
Capo 4

Intro:  E 
[Verse 1]
 E A E 
She could've made a river, but she had to make rain
                                  A E 
Once it started falling, it was never the same
 B A E 
Forty days running, forty nights long
 B A E B 
Water kept on coming till the valleys are gone... gone

[Chorus]
     A E B 
She said it's alright, took me where she left me
  E B C#m 
Turned around, went away, breakaway speed
   A <spa

Let Me Love You Acoustic chords – Mario

 Capo on 3 :)
 
 Am Em D 
Mmmm ..... Mmmmm.... Yeah....Mmmmm....Yeah, Yeah, Yeah


[Verse 1:]

 Am 
Baby I just don't get it

 Em 
Do you enjoy being hurt?

 D D 
I know you smelled the perfume, the make-up on his shirt

 Am 
You don't believe his stories

 Em 
You know that they're all lies

 D D D 
Bad as you are, you stick around and I just don't know why


 Am 
If I was ya man (baby you)

 Em 
Never worry bout (what I do)

 D 
I'd be coming home (back to you)

 Am D 
Every night, doin' you right

 Am 
You're the type of woman (deserves good thangs)

 Em 
Fistful of diamonds (hand full of rings)

 D D 
Baby you're a star (I just want to show you, you are)


[Chorus:]

 Am 
You should let me love you

 Em D 
Let me be the one to give you everything you want and need

 Am 
Baby good love and protection

 Em 
Make me your selection

 D 
Show you the way love's supposed to be

                        Am Em D 
Baby you should let me love you, love you, love you


[Verse 2:]


Listen

 Am Em 
Your true beauty's description looks so good that it hurts

 Em D 
You're a dime plus ninety-nine and it's a shame

 D 
Don't even know what you're worth

 Am 
Everywhere you go they stop and stare

 Em 
Cause you're bad and it shows

 D D D 
From your head to your toes, Out of control, baby you know


 Am 
If I was ya man (baby you)

 Em 
Never worry bout (what I do)

 D 
I'd be coming home (back to you)

 Am D 
Every night doin' you right

 Am 
You're the type of woman (deserves good thangs)

 Em 
Fistful of diamonds (hand full of rings)

 D D 
Baby you're a star (I just want to show you, you are)


[Chorus:]

 Am 
You should let me love you

 Em D 
Let me be the one to give you everything you want and need

 Am 
Ooh Baby good love and protection

 Em 
Make me your selection

 D 
Show you the way love's supposed to be

 D 
Baby you should let me....


[Bridge:]

 Am 
You deserve better girl (you know you deserve better)

 Em 
We should be together girl (baby)

 D Am 
With me and you it's whatever girl, hey!

 D 
So can we make this thing ours?


[Chorus:]

 Am 
You should let me love you

 Em D 
Let me be the one to give you everything you want and need

 Am 
Baby good love and protection

 Em 
Make me your selection

 D 
Show you the way love's supposed to be


      Am 
Baby you should let me love you

 Em D 
Let me be the one to give you everything you want and need

 Am 
That good love and protection

 Em 
Make me your selection

 D 
Show you the way love's supposed to be


 Am 
You should let me love you

 Em D 
Let me be the one to give you everything you want and need

 Am 
Good love and protection(protection)

 Em 
Make me your selection(selection)

 D 
Show you the way love's supposed to be yeah

                       

Escape Route Tabs by Paramore

 Paramore 
Escape Route
Tab: alex_dqg 

Intro
Lead
e|------------------------------|
B|------------------------------|
G|------------------------------|
D|------------------------------|x2
A|-------4--3-1-4-------4--3-1--|
E|-11-4-2-44-4----11-4-2-44-4-4-|

Rhythm 
e|-----------------------------------------------------------|
B|-9999-11111111-13131313-14141414-9999-11111111-13131313-66-|
G|-xxxx-xxxx-----xxxxxxxx-xxxxxxxx-xxxx-xxxx-----xxxxxxxx-xx-|
D|-7777-9999-----11111111-12121212-7777-9999-----11111111-44-|x2
A|-----------------------------------------------------------|
E|-----------------------------------------------------------|

Verse 
Bass Jeremy 
Repeat Intro

Chorus 
Lead
e|-----------------------------------------------|
B|-----------------------------------------------|
G|-------66666-----------------------66666-------|
D|-44444-66666-66666-8888-6666-44444-66666-66666-| 
A|-44444-44444-66666-8888-6666-44444-44444-66666-|
E|-22222-------44444-6666-4444-22222-------44444-|

e|---------------------------------------------------|
B|---------------------------------------------------|
G|---------------------------------------------------|
D|-44444-66666-8888-10101010-111111-6666-44444-66666-| 
A|-44444-66666-8888-10101010-111111-6666-44444-66666-|
E|-22222-44444-6666-88888888-9999---4444-22222-44444-|

Rhythm 
e|-6666--------------6666----6666---------------|
B|-----9999-6666-9999----9999----9999-6666-9999-|
G|----------------------------------------------|

e|-6666-8888-9999-11111111-13131313-9999-6666-8888-|
B|-------------------------------------------------|
G|-------------------------------------------------|

Verse 

Bass Jeremy 
Repeat Intro
Repeat Chorus
 
Bridge


e|------------------------------------|
B|------------------------------------|
G|------66-xxx-66-------1010-xxx-1010-|
D|------66-xxx-66-------1010-xxx-1010-|
A|------44-xxx-44-4~-6~-8-8--xxx-8-8--|
E|-6~-2~------------------------------|

Solo

Rhythm 
e|-9999-111111-13131313-9-13-9-13-16161616-|
B|-----------------------------------------|
G|-----------------------------------------|

e|-9999-111111-13131313-----------------------------16161616-|
B|----------------------14141414-1111111111-14141414---------|
G|-----------------------------------------------------------|

Repeat 
Chorus x2

Final 
e|-------------|
B|-------------|
G|-------------|
D|-------------|
A|-------4--3--|
E|-11-4-2-44-4-|

e|---|
B|---|
G|-6-|
D|-6-|
A|-4-|
E|---|

Seasons Waiting On You chords – The Future Islands

 Capo on 3

Intro
 C 

[Verse]

 C D                 
Seasons change, 

 D G  
and I tried hard just to soften you

 C D  
The seasons change

 D G 
but I've grown tired of tryin' to change for you

[Bridge]

 G C D 
Because I've been waiting on you

 D G 
I've been waiting on you

 G C D 
Because I've been waiting on you

 D G 
I've been waiting on you



[Chorus]
 C Em Am 
    As it breaks, the summer awaits

 Am G Am C        
But the winter washed whats left of the taste

 C Em Am 
    As it breaks, the summer awaits

 Am G Am 
But the winter craved whats lost

 G Am Em 
Crave whats all...Gone Away

[Verse 2]
 C D                     
People change

 D G 
even though some people never do

 C          
You know when people change

 D G 
They gain a piece but they lose one too


 G C D 
Because I've been waiting on you

 D G 
I've been waiting on you


 G C D 
Because I've been waiting on you

 D G 
I've been waiting on you

[Chorus]
 C Em Am 
    As it breaks, the summer awaits

 Am G Am C        
But the winter washed whats left of the taste

 C Em Am 
    As it breaks, the summer awaits

 Am G Am 
But the winter craved whats lost

 G Am Em 
Crave whats all...Gone Away

Cut Up Tabs by Girls Names

 Cut Up by Girls Names (off Dead to Me)

Chords:

D:

E-5
B-7
G-7
D-7
A-5
E-5

A:

E-5
B-5
G-6
D-7
A-7
E-5

G:

E-3
B-3
G-4
D-5
A-5
E-3


Intro Pt. 1:

E--------------------------------------------------------------------|
B--------------------------------------------------------------------|
G-7-7-7-7-6-6-6-6-7-7-7-7-6-6-6-6-7-7-7-7-6-6-6-6-7-7-7-7-6-6-6-6----|
D--------------------------------------------------------------------|
A--------------------------------------------------------------------|
E--------------------------------------------------------------------|

Intro Pt. 2: (x2)

E--------------------------------------------------------------------|
B--------------------------------------------------------------------|
G-7-7-7-7-6-6-6-6-7-7-7-7-6-6-6-6-7-7-7-7-6-6-6-6-7-7-7-7-6-6-6-6----|
D--------------------------------------------------------------------|
A--------------------------------------------------------------------|
E--------------------------------------------------------------------|

E--------------------------------------------------------------------|
B--------------------------------------------------------------------|
G-4-4-4-3-4-4-4-3-4-4-4-3-4-4-5-5-6-6-6-5-6-6-6-5-6-6-6-5-6-6-6-5----|
D--------------------------------------------------------------------|
A--------------------------------------------------------------------|
E--------------------------------------------------------------------|

Verse:

D   A   D   A
Girl I'm Cut up

       G              A
I can't wait I can't wait

D  A   D   A
Cut up Cut up

       G             A
I can't wait, no I can't wait.


Bridge: (x2)

E--------------------------------------------------------------------|
B--------------------------------------------------------------------|
G-7-7-7-7-6-6-6-6-7-7-7-7-6-6-6-6-7-7-7-7-6-6-6-6-7-7-7-7-6-6-6-6----|
D--------------------------------------------------------------------|
A--------------------------------------------------------------------|
E--------------------------------------------------------------------|

E--------------------------------------------------------------------|
B--------------------------------------------------------------------|
G-4-4-4-3-4-4-4-3-4-4-4-3-4-4-5-5-6-6-6-5-6-6-6-5-6-6-6-5-6-6-6-5----|
D--------------------------------------------------------------------|
A--------------------------------------------------------------------|
E--------------------------------------------------------------------|



Verse:

D   A  D   A
Cut up Cut up

       G             A
I can't wait I can't wait

D    A   D    A
Cut up so broken up

      G           A
I can't wait no I can't wait

     G          A
To see your face

     G      A
to walk away


Solo: (x2)

E-------------------------------------------------------------------------------|
B-----------------------7-7-5-5-3-3-5-5------------------------7-7-5-5-3-3-2-2--|
G-7-7-7-7-6-6-6-6-----------------------7-7-7-7-6-6-6-6-------------------------|
D-------------------------------------------------------------------------------|
A-------------------------------------------------------------------------------|
E-------------------------------------------------------------------------------|

E-------------------------------------------------------------------------------|
B------------------------7-7-5-5-3-3-5-5------------------------7-7-5-5-3-3-5-5-|
G-4-4-4-3-4-4-4-3-------------------------6-6-6-5-6-6-6-5-----------------------|
D-------------------------------------------------------------------------------|
A-------------------------------------------------------------------------------|
E-------------------------------------------------------------------------------|


Verse:

D   A  D   A
Cut up Cut up

       G             A
I can't wait I can't wait

D    A   D    A
Cut up so broken up

Pick Up Your Broken Heart Tabs by Newton Faulkner

 hi guys :)

this will be my 2nd tab I've done
again done by watching him perform live 
this aint really a hard song 

 write it on your skin.
tab by: Jordan Reece 
tuning: C# G# C# F# B# C# 



C#|-------------------------0--0---0---0--|
G#|--------------------------0--0-4-4-5---|
F#|------------------------0--0---0-0-0-0-| x2
C#|--0-0--2-2--4-4-4s5s4p0-5--5---0---0-0-|
G#|---------------------------------------|
C#|-0---0----0-------------5--5---5---5---|


C#|-------------------------|   
G#|-------------------------| 
F#|--0-----0------9-----7---|  
C#|---0-----4------0-----0--|  
G#|-2--2--0--0--10--10s9--9-|  
C#|-------------------------|

then....

C#|----------------------------------------|  
G#|--------------------------------0-0-0-0-| 
F#|--0-----0------9---9-----6---6--6-6-6-6-|
C#|---0-----4------0---0---7-7-7-7-7-7-7-7-|
G#|-2--2--0--0--10--10--10---0---0-0-0-0-0-| 
C#|------------------------7---7---7-7-7-7-|  

C#|-----------------------------------0-0----0--0---|
G#|-0-----0------0------0------0------0-0-0-4-4-5-0-|
F#|-7-----9------11-----12-----11-----4-4---0-0-0-0-|
C#|-0-----0------0------0------0------5-5---0---0---|
G#|-5-----7------9------10-----9------0-0-----------|
C#|-0-----0------0------0------0------5-5---5---5---|

and basically back to the start and so on...
haven't figured out the bridge but will update
asap once I do.


hope you all can figure it out 
the chorus is easy just listen to the song and
work it out from there thanks and enjoy :)

Hard To Hold Tabs by Rac

 Rad tuneage...99% correct! Comment and rate, or just jam...enjoy!

Artist: RAC feat. Tegan and Sara
Song: Hard to Hold      
 Strangers, Part I
Tuning: Standard

Intro

e |--5------4-----5--------|
B |--5------5-----7--------|
G |--6------6-----6--------|
D |--7------6-----7--------|
A |--7------4-----5--------|    
E |--5------x-----x--------|

Verse 1

e |-5----7----5----5--------|
B |-7----9----5----7--------|
G |-6----9----6----6--------|
D |-7----9----7----7--------|
A |-5----7----7----5--------|   
E |-x----x----5----x--------|

I've got to liberate first
The list of fiction
My mouth has made first
Eliminate the distance between us

I've got to implicate first
The list of lies
My mind has made first
Eliminate the distance between us

Pre - Chorus

e |-5----7----5----5--------|
B |-7----9----5----7--------|
G |-6----9----6----6--------|
D |-7----9----7----7--------|
A |-5----7----7----5--------|   
E |-x----x----5----x--------|

Truth be told
You're hard to hold
You've gotta want it
You've gotta want it right now

Chorus

e |--5---5---4-----5--------|
B |--5---7---5-----7--------|
G |--6---6---6-----6--------|
D |--7---7---6-----7--------|
A |--7---5---4-----5--------|   
E |--5---x---x-----x--------|


If you don't want me
Baby, you don't deserve me
You've got to want it right now

If you don't want me
Baby, you don't deserve me
I've got to want it right now

Verse 2

You've got to cooperate first
List the wounds
That caused me pain first
Eliminate the distance between us

You've got to illustrate first
List the damage
That caused me pain first
Eliminate the distance between us

Pre - Chorus

Chorus

Bridge

e |--4-------5----4---5-----|
B |--5-------7----5---7-----|
G |--6-------6----6---6-----|
D |--6-------7----6---7-----|
A |--4-------5----4---5-----|   
E |--x-------x----x---x-----|


I can feel the difference
That a little distance
In between us starts to show

I can tell what you want
If you really want to know
I can take you to the top
If you really want to go

If you just say yes
If you stop saying no
If you just attest
That you want me so

Chorus

How Might I Live Tabs by Real Estate

 Real Estate 
How Might I Live
Atlas

A nice little tune off their new album.  Words and music by Alex Bleeker.

/ = hammer on 
\ = pull off
Here's the intro riff (and the riff played throughout the song):

e|------------------------------------|-------------------------|
B|------------------------------------|-------------------------|
G|------------------------------------|-------------------------|
D|-9--7--5--2---0/2/5---2\0-----2\0---|-9--7--5--2---0/2---5--9-|
A|------------------------------------|-------------------------|
E|---------------------------3------3-|-------------------------|

e|----------------------------|--0--|-------------------------|
B|----------------------------|--0--|-------------------------|
G|----------------------------|--0--|-------------------------|
D|-9--7--5--2---0/2/5---2\0---|--2--|-9--7---5--7-5--7--5-7-9-|
A|----------------------------|--3--|-------------------------|
E|--------------------------3-|--0--|-------------------------|

(G and C are strummed throughout the intro and verse)

G           C              G    G           C               G
How might I live to betray you, how might I live to see the day?

G           C                  G             Cmaj7
How might I live to say you're not the one I love

C           D               G
How might I live to see the day?

That's basically it.  C and G are the chords strummed during the bridge.

Glass House Tabs by Blackfield V2

 -----------------------------------------------------------------------------
                                          Artist - Blackfield
                                         *********************
                                          Song - Glass House 
                                         ********************
                                       Album - Welcome To My DNA 
                                      ***************************
                                          - Ayreon77
                                        **********************  
                    
-----------------------------------------------------------------------------
       There are 2 versions of this song on here,
         and i think that they both sound wrong
            Hopefully this is an improvment.

VERSE 1
********
D     
Goodbye old friend, my paranoid
      G  
We'll meet again someday
F#m             B
Life is running out
  D           G                    Em  
I guess I had enough, I need to go now


----------------------------------------------
Small Solo
***********
   Em            Cm Bb   Em            Cm Bb
e|---------br----------|---------br----------|
B|-12-----12-----------|-12-----12-----------|
G|------------12-12-10-|------------12-12-10-|
D|---------------------|---------------------|
A|---------------------|---------------------|
E|---------------------|---------------------|


----------------------------------------------
VERSE 2
********
  D   
I used to live in a house of glass
      G
Where no one comes or goes
F#m           Bb         
Watching life outside
  D               
I used to stand behind the door
    G 
And hope the wind won't blow
    F#m           B
And mess my fears around
   D                  G                      Em 
It took me so long to find out where they're hiding.


----------------------------------------------
Small Solo
***********
   Em            Cm Bb   Em            Cm Bb
e|---------br----------|---------br----------|
B|-12-----12-----------|-12-----12-----------|
G|------------12-12-10-|------------12-12-10-|
D|---------------------|---------------------|
A|---------------------|---------------------|
E|---------------------|---------------------|


----------------------------------------------
BRIDGE
*******
Fm
Music like rain
     Cm    
Over my deepest feelings
           Bb
Are you're faking that
Fm
Music like rain
     Cm    
Over my deepest feelings
           Bb         
Are you're faking that
Cm     Em            
Faking that.


----------------------------------------------
Small Solo
***********
   Em            Cm Bb   Em            Cm Bb
e|---------br----------|---------br----------|
B|-12-----12-----------|-12-----12-----------|
G|------------12-12-10-|------------12-12-10-|
D|---------------------|---------------------|
A|---------------------|---------------------|
E|---------------------|---------------------|

D Cm G F#m Em B(X2)
  
----------------------------------------------
VERSE 3
********
D     
Goodbye old friend, my paranoid
      G  
We'll meet again someday
F#m             B
Life is running out
  D           G                    Em  
I guess I had enough, I need to go now


----------------------------------------------
Small Solo
***********
   Em            Cm Bb   Em            Cm Bb
e|---------br----------|---------br----------|
B|-12-----12-----------|-12-----12-----------|
G|------------12-12-10-|------------12-12-10-|
D|---------------------|---------------------|
A|---------------------|---------------------|
E|---------------------|---------------------|



ENJOY.......

Man Or Muppet Acoustic chords – Bret Mckenzie

 : Jim-BlenderBR
 - Please rate and send me your feedback - 

**Capo 3th**

Intro :  Em Em7  2x

 Em Em7 
I reflect on my reflection

                               Em 
And i ask myself the question

                              Em7 
Whats the right direction to go

             Em Em7 
I dont know


Chorus

        G Cadd9 
Am i a man or am i a muppet


If im a muppet then im a very manly muppet

        G Cadd9 
Am i a muppet or am i a man


If im a man that makes me a muppet of a man


Verse 2

 Em Em7 
I look into these eyes

                   Em 
And i dont recognize
 
                 Em7 
The one i see inside

                      Em Em7 
Its time for me to decide


Chorus

        G Cadd9 
Am i a man or am i a muppet


If im a muppet then im a very manly muppet

        G Cadd9 
Am i a muppet or am i a man


If im a man that makes me a muppet of a man


Bridge

Here i go again

 Cadd9 G 
I'm always running our of time

 Cadd9 G 
I think i made up my mind

 Em A 
Now i understand who i am


Chorus

           G 
I'm a man
    
       Cadd9 Em         
I'm a muppet

     A                     
I'm a muppet of a man

                       G 
I'm a very manly muppet

             Cadd9 Em 
I'm a muppety man
   
    A G 
This is what i am

Hey Mario Tabs by Patent Pending

 -------------------------------------------------------------------------------
                             HEY MARIO - Patent Pending
-------------------------------------------------------------------------------
: Joe Doul

Tuning: Standard

This is based on the brilliant tab by PlainOlBrod, but with the power chords tabbed out:

************************************

Verse
e|---------------------------------|
B|---------------------------------|
G|-----9-9-7---7-7-----9-9-7---7-7-|
D|-7---9-9-7---7-7-7---9-9-7---7-7-|
A|-7---7-7-5---5-5-7---7-7-5---5-5-|
E|-5---------------5---------------|


Chorus
e|---------------------------------------------------------------------------|
B|---------------------------------------------------------------------------|
G|-77----99------77----99-99---77----99----44444444-77777--------------------|
D|-77-77-99-44---77-77-99-99---77-77-99-44-44444444-77777--------------------|
A|-55-77-77-44---55-77-77-77---55-77-77-44-22222222-55555--------------------|
E|----55----22------55------------55----22-----------------------------------|


Verse
e|---------------------------------|
B|---------------------------------|
G|-----9-9-7---7-7-----9-9-7---7-7-|
D|-7---9-9-7---7-7-7---9-9-7---7-7-|
A|-7---7-7-5---5-5-7---7-7-5---5-5-|
E|-5---------------5---------------|


Chorus
e|---------------------------------------------------------------------------|
B|---------------------------------------------------------------------------|
G|-77----99------77----99-99---77----99----44444444-77777--------------------|
D|-77-77-99-44---77-77-99-99---77-77-99-44-44444444-77777--------------------|
A|-55-77-77-44---55-77-77-77---55-77-77-44-22222222-55555--------------------|
E|----55----22------55------------55----22-----------------------------------|


Bridge
e|---------------------------------------------------------------------------|
B|---------------------------------------------------------------------------|
G|----77-99-99------77-99-99------77-99------44444444-77777------------------|
D|-77-77-99-99---77-77-99-99---77-77-99-44---44444444-77777------------------|
A|-77-55-77-77---77-55-77-77---77-55-77-44---22222222-55555------------------|
E|-55------------55------------55-------22-----------------------------------|


Chorus
e|---------------------------------------------------------------------------|
B|---------------------------------------------------------------------------|
G|-77----99------77----99-99---77----99----44444444-77777--------------------|
D|-77-77-99-44---77-77-99-99---77-77-99-44-44444444-77777--------------------|
A|-55-77-77-44---55-77-77-77---55-77-77-44-22222222-55555--------------------|
E|----55----22------55------------55----22-----------------------------------|


************************************

Careful Where You Stand chords – Coldplay V2

 Intro:  C#m ,  B  x4


Verse 1:
      C#m B C#m B C#m B 
I feel safe, I feel warm when you're here
            C#m B 
Then I do no wrong
       A F#m C#m 
I am cured, when I'm by your side
       F# AM7 
I'm alright, alright


Verse 2:
    C#m B C#m B 
I am safe, when I am with you
          C#m B C#m B 
And I feel warm, If you want me too
       A F#m C#m 
I am cured, when I'm by your side

       F# AM7 
I'm alright


Chorus:
 Bm GM7 E7 GM7 
Careful where you stand, My love
 Bm GM7 E7 GM7 
Careful where you lay your head
       B G#m G F# (7)           Esus2 E Esus2 E 
It's true  we're always looking out for one another


Verse 3:
      C#m B C#m B 
I feel safe, when I am with you
      C#m B C#m B 
I feel warm, when you want me too
       A F#m C#m 
I am cured when you are around

       F# AM7 
I'm alright


Chorus:
 Bm GM7 E7 GM7 
Careful where you stand, My love
 Bm GM7 E7 GM7 
Careful where you lay your head
       B G#m G F# (7)           Esus2 E Esus2 E 
It's true  we're always looking out for one another


Bridge:
 E/B A/C# Am/C E/B 
  So I'd like a quiet time please
       A/C# Am/C         
Yeah, I'd like a quiet time


Instrumental: 
 Bm ,  GM7 ,  E7 ,  GM7  x4 


Final Chorus:
      B G#m G F# 
Be careful where you stand
       B G#m G F# 
Now, careful where you stand


Outro: 
 B ,  G#m ,  G  (Hold out this G chord with alternation between notes B and D)


This should be fairly accurate. It's in the original key as well (which I assume 
is E, but there's so many key changes, I'm not sure if that's a definite thing). 
Enjoy and rate!

I Remember chords – Mocca

 Chord I remember


      C Dm C Dm 
I remember...The way you glanced at me, yes I remember
         C Dm C C7 
I remember...When we caught a shooting star, yes I remember


#chorus :
          F Em 
I remember.. All the things that we shared
             Dm G C  -  C7 
and the promise we made, just you and I
          F Em A  
I remember.. All the laughter we shared
            Dm G      -    G7 
all the wishes we made, upon the roof at dawn


           C Dm 
Do you remember..? When we were dancing 
         C Dm 
in the rain in that december
          C Dm     -     Dm7 C  -  C7 
And I remember..When my father thought you were a burglar


#back to chorus


#bridge :
 C Dm 
papparappa
          C 
papparappa
         Dm  -  Dm7 
papparapa
 C Dm 
papparappa
          C 
papparappa
         C7 
papparapa


#back to chorus


     C Dm C 
I remember.. The way you read your books, yes I remember
        Dm C 
The way you tied your shoes, yes I remember
          Dm C 
The cake you loved the most, yes I remember
       Dm C 
The way you drank you coffee, I remember
       Dm C 
The way you glanced at me, yes I remember
          Dm C 
When we caught a shooting star, yes I remember
              Dm C 
When we were dancing in the rain in that december
          Dm Dm7 C 
And the way you smile at me, yes I remember

Raging Fire chords – Phillip Phillips V3

 (Verse One)
 G 
We are dead to right, morning rays 
                G 
We are thicking thin to our last days 
        Em C G 
So hold me close and I'll surrender to your heart 
                     G 
You know how to give and how to take 
                 G 
You see every hope I locked away 
        Em C G 
So pull me close and surrender to my heart 
             Em D G 
Before the flame goes out tonight 
           C G D 
We can  live until we die 

(Chorus)
        Em C 
So come out, come out, come out 
                     G 
Won't you turn my soul 
         D 
Into a raging fire 
     Em C 
Come out, come out, come out 
                 G 
Till we lose control 
             D Em  –  C  –  G  
Into a raging fire (hold note)
             D 
Into a raging fire 
   Em C 
Come out, come out, come out 
                     G D 
Won't you turn my soul 
                 G Em C 
Into a raging fire 

(Verse Two)
            G 
You know time will give and time will take 
               G 
All the memories made will wash away 
        Em C G 
Even though we changed I'm still here with you 

 G 
If you listen close you'll hear the sounds
 G Em 
of all the ghosts that bring us down 
   C G 
Hold on to what makes you feel 
                             G 
Don't let go, this one will make you real
           Em D G 
If the flame goes out tonight 
          C G D 
Yeah we live until we die 

(Chorus)
        Em C 
So come out, come out, come out 
                     G 
Won't you turn my soul 
             D 
Into a raging fire 
    Em C 
Come out, come out, come out 

                 G 
Till we lose control 
              D Em C G 
Into a raging fire 
             D 
Into a raging fire 
 Em C 
Come out, come out, come out 
                    G 
Won't you turn my soul 
  D G  –  Em  -  C 
Into a raging fire 

(Bridge)
          Em D G 
Let the world leave lost behind 
            C G D 
Let your heart be next to mine 
            Em D G 
'Fore the flame goes out tonight 
         C G D 
We can live until we die 


 Em C 
Come out, come out, come out 
                    G 
Won't you turn my soul 
             D 
Into a raging fire 
 Em C 
Come out, come out, come out 
                     G 
Won't you turn my soul 
             D 
Into a raging fire 

 Em C 
Come out, come out, come out 
                    G 
Won't you turn my soul 
             D 
Into a raging fire 
 Em C 
Come out, come out, come out 
                    G 
Won't you turn my soul 
             D 
Into a raging fire 
           D 
Into a raging fire

Daddy Longlegs Tabs by Black Lips

 For most of the song, this riff is played:

e-------------------------------------|
b-------------------------------------|
g----------------------------2-2------|
d-----------2-2----0-0-0-0-3----3-----|
a-0-0-0-0-3-----3---------------------|
e-------------------------------------|

At the bridge "I aint never comin back", this is played: 3X

e-------------------------------------|
b-------------------------------------|
g-------------------------------------|
d-3---3---3---3---0---0---0---0-------|
a---3---3---3---3---0---0---0---0-----|
e-------------------------------------|

then

e---------------------------|
b---------------------------|
g---------------------------|
d-2-2-----------------------|
a-----3-3-0-0-0-0-0-0-0-0---|
e---------------------------|

For the Solo, these chords are played (listen to song for rhythm)

Em and D, i find it sounds better if you do Em in the A form, the D chord can 
really go either way.

The D chord isn't by itself, it goes like this:

e-5-------------|
b-7-7-7-8-8-7-7-|
g-7-7-----------|
d-7-------------|
a-5-------------|
e-x-------------|

Tablature by: Austin Wiseman

Lower The Heavens Tabs by The Donkeys

 -------------------------------------------------------------------------------
                             Lower The Heavens - The Donkeys
-------------------------------------------------------------------------------
: guitar zeer0
 PM me if you feel the need

Tuning: Standard 

The notes begin about a minute into the song. I tried to space it out in 

accordance with the rhythm. The spacing isn't exact but it'll give you a general 

idea.  ear. , enjoy!
 
[Chorus] (x2)
e|---------------------------------------------------------------------------|
B|------1---1---1h3-------1-3-4b3-1-------1---1---1h3-------1-3-4b3-1--------|
G|--0h2---2---2-------0h2-------------0h2---2---2-------0h2------------------|
D|---------------------------------------------------------------------------|
A|---------------------------------------------------------------------------|
E|---------------------------------------------------------------------------|

e|----------0-----------------0-----------------0-------0-----0-----0--------|
B|------1-------1---------1-------1---------1-------1-----1-----1-----1------|
G|--0h2---2---2---2---0h2---2---2---2---0h2---2---2---2-----2-----2----------|
D|---------------------------------------------------------------------------|
A|---------------------------------------------------------------------------|
E|---------------------------------------------------------------------------|

[Bridge]
e|--3-----3-----3-----3-----3-----3-0-----0-----0-----0-----0-----0----------|
B|----1-----1-----1-----1-----2-------1-----1-----1-----1-----1--------------|
G|------2-----2-----2-----2-----1-------2-----2-----2-----2-----2------------|
D|---------------------------------------------------------------------------|
A|---------------------------------------------------------------------------|
E|---------------------------------------------------------------------------|

e|--1-----1-----1-----1-----1-0-----0-----0-----3-1-0------------------------|
B|----1-----1-----1-----1-------1-----1-----1---------3-1-0-1--0-1-0-2/3-----|
G|------2-----2-----2-----2-------2-----2-----2------------------------------|
D|---------------------------------------------------------------------------|
A|---------------------------------------------------------------------------|
E|---------------------------------------------------------------------------|

e|----------------------------------------3-1-0------------------------------|
B|--0-1--0-1-0-2/3---0-1--0-1-0-2/3--0-1--------3-1-0-1--0-1-0-2/3-----------|
G|---------------------------------------------------------------------------|
D|---------------------------------------------------------------------------|
A|---------------------------------------------------------------------------|
E|---------------------------------------------------------------------------|

e|---------------------------------------------------------------------------|
B|--0-1--0-1-0-2/3--0-1--0-1-0-2/3--1-0-1-0----------------------------------|
G|------------------------------------------2-----0--------------------------|
D|--------------------------------------------0h2---2------------------------|
A|---------------------------------------------------------------------------|
E|---------------------------------------------------------------------------|

[Repeat Chorus]

[Solo]
e|---------------------------------------------------------------------------|
B|---------------------------------------------------------------------------|
G|--7b---9-9\7--7-7--7-7-----------------------------------------------------|
D|-----------------------10-9-7----------------------------------------------|
A|---------------------------------------------------------------------------|
E|--------------------------------10-10/12--12-12---8-8-8-8/10-10-10/12------|

e|-----------------------------------

In The Night Acoustic chords – Mike Mains And The Branches

 -----------------------------------------------------------------
     In The Night - Mike Mains & The Branches
-----------------------------------------------------------------
: StarrGuitarist
Email: Starrguitarist

Tuning: Standard ebgdaE


Intro:  C Am C Am 

Verse
 C Am C Am 
Say you, Say me, Goodbye to thee
 C Am 
My spirit left its cage tonight
         C Am C Am 
So I’m looking for a place in heavens light
      C Am C Am 
So wait for me, My sweet honeybee
 C Am 
Everything will be just fine
 C Am 
Push back the curtains and drink in the sun

Prechorus
 Am 
The house burning down and there’s no fire escape
 G 
Decide tonight if you will stay or if you’ll run away

Chorus
 Am F C G Am F C G 
Cause I love you more than ever And I need you here tonight
 Am F C G Am F C G 
If you find yourself lonely I will be with you in the night
 Am F C G C Am C Am 
I will be with you…



Verse
 C Am C Am 
Say you, Say me, I do not believe
 C Am 
Everything I as it seems
 C Am         
So stick a hook in my heart cast it into the streets
 C Am    
Then park the car Come in rescue me

Prechorus
 Am 
The house burning down and there’s no fire escape
 G 
Decide tonight if you will stay!

Chorus
 Am F C G Am F C G 
Cause I love you more than ever And I need you here tonight
 Am F C G Am F C G 
If you find yourself lonely I will be with you in the night
 Am F C G Am G C D E 
I will be with you No!

Bridge
 C 
Checking my pulse, am I still electric?
 Am Gsus 
Changing my clothes How did I get so far way from home?
 G 
I’m just a lost boy looking for home
 C 
I’ve got that Springsteen shoulder-shake
 Am 
I’ve got this pristine plan to make
 G 
And every fountain, and pen, and camera lens
 G G 
Tells stories of the thoughts I think 


Prechorus
 Am 
The house burning down and there’s no fire escape
 G 
Decide tonight if you will stay!

Chorus
 Am F C G Am F C G 
Cause I love you more than ever And I need you here tonight
 Am F C G Am F C G 
If you find yourself lonely I will be with you in the night
 Am F C G     
I will be with you No!

 Am F C G Am F C G 
Cause I love you more than ever And I need you here tonight
 Am F C G Am F C G 
If

Come However You Are chords – City Harbor

 Come However You Are
City Harbor

Intro:

 C G/B Am F C G/B Am F 


Verse 1:

 C G/B Am F 
To anyone walking down a hard road
 C G/B Am F 
Worn out with blisters on your feet
 C G/B  
To anyone with a heart that’s shattered
 Am F 
Doing your best to hold it together
 C G/B Am F 
With no prayer to pray and no song left to sing
 C G/B Am F 
             Whatever pain you’re dealing with
 C G/B Am F 
             Let me offer this


Chorus:

 C Am           
Come however you are
                      F 
Come with all your heartbreaks
                    Dm 
Come with all the mistakes you’ve made
 C Am 
Lay them down at the cross
                   F 
Give them to the God who loves you
                         G Am F 
Hurt, scarred, falling apart
                   C 
Come however you are


Instrumental:

 C G/B Am F 


Verse 2:

 C G/B Am F 
To the girl who never had a father
 C G/B Am F 
To the guy who thinks he’ll never amount to much of anything
 C G/B Am F    
To those of us who feel unwanted, unneeded, unloved 
 C G/B Am F 
And desperately incomplete


[Repeat Chorus]  (on last line, replace C with G—leading into the Bridge)


Bridge:

 G Am 
Come with your regrets
 F 
Come with the things you can’t change
 G Am F 
Come with all your fears and all your shame with everything
 G Am F 
Come with the pieces of your bruised and broken heart
        Dm F 
Don’t wait; don’t wait

 C G/B Am F 
             Whatever pain you’re dealing with
 C G/B Am F 
             Let me offer this


[Repeat Chorus]


Coda:

 C G/B Am F 
Come however you, come however you are
 C G/B Am F 
Come however you, come however you are
 C G/B Am F 
Come however you, come however you are
 C G/B Am F 
                  Come however you are