Tag: bring

Mantra chords by Bring Me the Horizon

MANTRA - BRING ME THE HORIZON (Guitar & Vocal Cover) -> https://www.youtube.com/watch?v=-zSW6MN-SIY
[Verse 1]

Intro]
D5 C5 (x4)

F5 C5 D5 (x4)

[Verse 1]
 Dm
 Do you wanna start a cult with me?
 Dm
 I'm not vibrating like I ought to be
 Bb
 I need a purpose, I can't keep surfing
 Dm
 Through this existential misery
 Dm
 Now we're gonna need some real estate
 Bb
 But if I choose my words carefully
 F
 Think I could fool you that I'm the guru
 C
 Wait, how do you spell epiphany?

 [Chorus]
 Dm             Bb                          F
 Before the truth will set you free
 It will p*ss you off
 Dm             Bb                          F
 Before you find a place to be
 You're gonna lose the plot
 Dm             Bb
 Too late to tell you now
 F                     C
 One ear and right out the other one
 Dm             Bb
 'Cause all you ever do
 F                     C
 Is chant the same old mantra

 [Verse 2]
 Dm
 Could I have your attention, please?
 Dm
 It's time to tap into your tragedy
 Bb
 Think you could use a new abuser
 Dm
 Close your eyes and listen carefully
 Dm
 Imagine you're stood on a beach
 Dm
 Water gently lapping at your feet
 Bb                                         F
 And now you're sinking, what were you thinking?
 C
 That's all the time we have this week

 [Chorus]
 Dm             Bb                          F
 Before the truth will set you free
 It will p*ss you off
 Dm             Bb                          F
 Before you find a place to be
 You're gonna lose the plot
 Dm             Bb
 Too late to tell you now
 F                     C
 One ear and right out the other one
 Dm             Bb
 'Cause all you ever do
 F                     C
 Is chant the same old mantra

 [Bridge]
 Dm                                               Bb
 And I know this doesn't make a lot of sense
 F                                                                    C
 But do you really wanna think about yourself now?
 Dm                                               Bb
 All I'm asking for's a little bit of faith
 F
 You know it's easy to believe
 Dm                                               Bb
 And I know this doesn't make a lot of sense
 F                                                                    C
 You know you gotta work the corners of your mind now
 Dm                                               Bb
 All I'm asking for's a little bit of faith
 F
 You know it's easy to believe
 C
 So easy to believe

 [Chorus]
 Dm             Bb                          F
 Before the truth will set you free
 It will p*ss you off
 Dm             Bb                          F
 Before you find a place to be
 You're gonna lose the plot
 Dm             Bb
 Too late to tell you now
 F                     C
 One ear and right out the other one
 Dm             Bb
 'Cause all you ever do
 F                     C
 Is chant the same old mantra

Bring The Broken Home chords – Vous Live

 "Bring the Broken Home" - Vous Live
Chords by: ajangelia


Intro -  G A Bm A  (2x) 


Verse 1:
 G A    
Jesus let me see
              Bm 
Glimpses of eternity
                     A G 
What you're calling me to be
 G A 
Changing all my doubt
                Bm A G 
Letting go and reaching out to the broken and the lost
               A 
You alone can save us
 G A 
You alone can change us


Chorus:
 D Bm 
Hope comes alive in the dark like the sun begins to shine 
                                                      G 
through the sky watch it rise at the breaking of the dawn
                     A 
Light of all of the world 
            G A                          (Interlude)
Jesus you alone love will overcome bring the broken home


Interlude -  G A Bm A 


Verse 2:
 G A    
Jesus let me see
              Bm 
Glimpses of eternity
                     A G 
What you're calling me to be
 G A 
Changing all my doubt
                Bm A G 
Letting go and reaching out to the broken and the lost
               A 
You alone can save us
 G A 
You alone can change us


Chorus(2x):
 D Bm 
Hope comes alive in the dark like the sun begins to shine 
                                                      G 
through the sky watch it rise at the breaking of the dawn
                     A 
Light of all of the world 
            G A                      
Jesus you alone love will overcome bring the broken home


Interlude -  G A Bm A 


Bridge(3x):
 G A      
Heaven is calling and I will follow
 Bm A 
Earth is fading and I will follow
 G A Bm  
Your voice draws me and I will follow You


Chorus(2x) - End:
 D Bm 
Hope comes alive in the dark like the sun begins to shine 
                                                      G 
through the sky watch it rise at the breaking of the dawn
                     A 
Light of all of the world 
            G A G 
Jesus you alone love will overcome bring the broken home


Light of all of the world 
            G A G 
Jesus you alone love will overcome bring the broken home

Blasphemy solo Tabs – Bring Me The Horizon V2

 -------------------------------------------------------------------------------
                             BLASPHEMY - Bring Me The Horizon
-------------------------------------------------------------------------------
:Maddy S
Instagram:maddybvb


Tuning:A# (B flat)

C |----------------------------------------------------------------------------------------------| 
G |------------13-------13/15----17(b)18(r)17----------------------------------------------------|
D#|---12/14---------14------------------------------------------12-------------------------------|
A#|----------------------------------------------------------------------------------------------|
F |----------------------------------------------------------------------------------------------|
A#|----------------------------------------------------------------------------------------------|

e|---10------------------------------------------10/--------------------------------------------------|
B|--------10--13---------------------------------10/--------------------------------------------------|
G|------------------12-10h12-12/14-12-10--------------------------------------------------------------|
D|----------------------------------------------------------------------------------------------------|
A|----------------------------------------------------------------------------------------------------|
E|----------------------------------------------------------------------------------------------------|

e|---10-----------------------------------------------------------------------------------------------|
B|-------13p10--------13p10-------------------------------------------13------------------------------|
G|---------------12----------12----------------10----------12/14-----------12-------------------------|
D|-------------------------------12-----10h12-------12------------------------------------------------|
A|----------------------------------------------------------------------------------------------------|
E|----------------------------------------------------------------------------------------------------|

e|-------------------------------------------13-15-15(b)17---17(b)20----15--17--13--------------------|
B|--15/17--13-13------------------13h15-----------------------------------------------15--------------|
G|----------------12p10-------------------------------------------------------------------------------|
D|----------------------------------------------------------------------------------------------------|
A|----------------------------------------------------------------------------------------------------|
E|----------------------------------------------------------------------------------------------------|


************************************

| /   slide up
| \   slide down
| h   hammer-on
| p   pull-off
| ~   vibrato
| +   harmonic
| x   Mute note
| b   Bend
| pb  Pre-bend
| br  Bend release
| pbr Pre-bend release
| brb Bend release bend

************************************

Bring Me Back To Life chords – Extreme Music

 So I Heard this on the TV Show The Originals tried to find it online but couldn't so I thought
I'd create the tab! The Original artist(s) were; Ht Bristol, Charlie Bannister, Vincent Steele
& Nine One One.
 
Standard Tuning 
No Capo (dependant on if you want to sing it in a different key)
If You Listen To The song you can pick up the strum pattern or make it your own!

******************************************
     * = One Strum
     */ = quick strum into next Chord
     h = hammer on
******************************************

Intro: Bm G D A << either play this or the tab below until the verse starts
   ooh-ooh
e |-------------------------------------------------5---5---5---5-------|
B |-7---7---7---7---8---8---8---8---7---7---7---7-----------------------|
G |---7---7---7---7---7---7---7---7---7---7---7---7---7---7---7---7-----|
D |---------------------------------------------------------------------|
A |---------------------------------------------------------------------|
E |---------------------------------------------------------------------|

   ooh-ooh
e |---------------------------------------------------------------------|
B |-7---7---7---7---8---8---8---8---7---7---7---7---5---5---5---5-------|
G |---7---7---7---7---7---7---7---7---7---7---7---7---7---7---7---7-----| x2 On Second way through
D |---------------------------------------------------------------------|    start singing
A |---------------------------------------------------------------------|
E |---------------------------------------------------------------------|


Verse 1:
 Bm G 
 I'm breathing in,
                  D 
 and breaking down
            A Bm   
 I feel my time is running out.
           G D A 
 The fire in my heart will burn me to the ground.
 Bm G D A Bm 
  I did my part I tried my best the things I'm fighting to protect
        G D A 
always shatter into pieces in the end. ooh


Chorus:
 Bm G D 
  I'm broken and i'm barely breathing.
                    A Bm 
I'm falling cuz my heart stopped beating.
                   G D 
If this is how it all goes down tonight,
                    A Bm 
if this is how you bring me back to life...
     G D 
woa-oh woa-oh
                   A Bm 
this is what it's like when we collide,
     G D 
woa-oh woa-oh
                    A Bm *
If this is how you bring me back to life...


Verse 2: 
 Bm G D 
  I'm up in blood abundant dry.
                 A Bm 
My heart's been beating all the time
              G D A 
to help this broken body live another night.


For The Next Bit in the verse you can continue the strumming or play the finger picking part from the
intro until the chorus again 


 Bm G D 
   Dad will cry and damage done.
         A Bm 
Who has lost and who has won?
          G D A 
Who will be there when my life support is gone? ooh


Chorus:
 Bm G D 
  I'm broken and i'm barely breathing.
                    A Bm 
I'm falling cuz my heart stopped beating.
                   G D 
If this is how it all goes down tonight,
                    A Bm 
if this is how you bring me back to life...
     G D 
woa-oh woa-oh
                   A Bm 
this is what it's like when we collide,
     G 

Bring Back The Sun Tabs by Our Lady Peace V3

 Our Lady Peace - Bring Back The Sun

 Andreas Schwarz

Eb-Tuning

INTRO:
                 
e|---------------------|---------------------|
B|---------------------|-------------------2-|
G|-----------2-2-2-4-1-|-----------2-2-2-4-1-|
D|-----0h4---4-4-4-4-2-|-----0h4---4-4-4-4-2-|
A|-0h4-------4-4-4-4-2-|-0h4-------4-4-4-4-2-|
E|--------2--2-2-2-2-0-|--------2--2-2-2-2-0-|
        
e|---------------------|-------------------------|
B|---------------------|-------------------2-0-0-|
G|-----------2-2-2-4-1-|-----------2-2-2-4-1-1-1-|
D|-----0h4---4-4-4-4-2-|-----0h4---4-4-4-4-2-2-2-|
A|-0h4-------4-4-4-4-2-|-0h4-------4-4-4-4-2-2-2-|
E|--------2--2-2-2-2-0-|--------2--2-2-2-2-0-0-0-|

VERSE:
         
e|---------------------|-----------------------0---|
B|---------------------|-------------------2-0---0-|
G|-----------2-2-2-4-1-|-----------2-2-2-4-1-------|
D|-----0h4---4-4-4-4-2-|-----0h4---4-4-4-4-2-------|
A|-0h4-------4-4-4-4-2-|-0h4-------4-4-4-4-2-------|
E|--------2--2-2-2-2-0-|--------2--2-2-2-2-0-------|

e|---------------------|--------------------------|
B|---------------------|-------------------2-2-0--|
G|-----------2-2-2-4-1-|-----------2-2-2-4-1-1-1--|
D|-----------4-4-4-4-2-|-----0h4---4-4-4-4-2-2-2--|
A|-----------4-4-4-4-2-|-0h4-------4-4-4-4-2-2-2--|
E|--------2--2-2-2-2-0-|--------2--2-2-2-2-0-0-0--|

e|---------------------|------------------------|
B|---------------------|-------------------2-0--|
G|-----------2-2-2-4-1-|-----------2-2-2-4-1-1--|
D|-----0h4---4-4-4-4-2-|-----0h4---4-4-4-4-2-2--|
A|-0h4-------4-4-4-4-2-|-0h4-------4-4-4-4-2-2--|
E|--------2--2-2-2-2-0-|--------2--2-2-2-2-0-0--|

e|---------------------|-----------------------0-|
B|---------------------|-------------------2-0---|
G|-----------2-2-2-4-1-|-----------2-2-2-4-1-1---|
D|-----0h4---4-4-4-4-2-|-----0h4---4-4-4-4-2-2---|
A|-0h4-------4-4-4-4-2-|-0h4-------4-4-4-4-2-2---|
E|--------2--2-2-2-2-0-|--------2--2-2-2-2-0-0---|

CHORUS:

e|-------0---------0---|-------0-------0-------|
B|--0-----0---0-----0--|--0-----0---0---0--0---|
G|---6-----6---6-------|---6-----4---4---4--4--|
D|----7-----7---7------|----6-----6---6---6--6-|
A|---------------------|-----------------------|
E|-5-------------------|-4---------------------|


e|--0--------0-------|-0-------0------0--------|
B|----0--0----0--0---|--0--0-0--0--0-0-0---0---|
G|-----2--2----2--2--|---1--1----1--1---1-1----|
D|------4--4----4--4-|----2-------2------2-----|
A|-------------------|-------------------------|
E|-(2)---------------|-------------------------|

repeat

SOLO:

e|------------------------------------------------------------------------|
B|-----------------------------7---7---7-7/9-7-5~--5-5\3-3\2-2---2-3-2----|
G|-1/6-6-6--6-6h7-7p6-6\4--4-4---4---4------------------------2-4-----4-2-|
D|------------------------------------------------------------------------|
A|------------------------------------------------------------------------|
E|------------------------------------------------------------------------|

e|--------------------|-------5----0-5b7r5-5-4~-4-4\2-2------|
B|--------------------|---------------------------------5-5--|
G|-2-2-2\1-1b2r1------|-4/6~-6-6-6---------------------------|
D|---------------2/4-2|--------------------------------------|
A|--------------------|--------------------------------------|
E|--------------------|--------------------------------------|

e|----------------------------------------------------------------|
B|-5-5b7-5-5b7-5-2b3-5-5b7-3-3\2-2h3-2p0--------------------------|
G|--------------------------------------2--2-1-2-1h2p1------------|
D|----------------------------------------------------2-----------|
A|-----------------------------------------------------2--2-2-----|
E|----------------------------------------------------------------|


Intro
Verse
Chorus
Verse
Chorus
Solo
Bridge (Same as Chorus)
Chorus
Outro

The House Of Wolves chords – Bring Me The Horizon

 Sorry it's not great but it's my first tab.
(It's for the acoustic guitar but i'm sure it'd work on electric too)

Play with the capo wherever you find easier, I play capo 2.
 C Am Em G  all through the song


           C Am 
Show me a sign, show me a reason to give,
    Em G 
A solitary fuck about your god damn beliefs
           C Am 
I'm going blind, but one thing's clear
 Em G 
Death is the only salvation you'll feel


 C Am Em G 
Brick by brick by brick   

 C Am Em G 
Brick by brick by brick


               C Am 
What you call faith, I call a sorry excuse
 Em G 
Cloak and daggers murder the truth
            C Am 
The bitter taste, there's nothing else
      Em G 
I'll bow for your king when he shows himself


 C Am 
Brick by brick by brick
       Em G 
These walls begin to cave in
     C Am 
The house of wolves you built
 Em G 
Whispers in a thousand tongues


              C Am 
Show me your face, show me a reason to think,
    Em G 
My soul can be saved if I sell you my sins
           C Am 
I'm going blind, but one thing's clear
 Em G 
Death is the only salvation for me


 C Am 
Brick by brick by brick
       Em G 
These walls begin to cave in
     C Am 
The house of wolves you built
 Em G 
Whispers in a thousand tongues


      C Am Em G 
(The house of wolves you built)
     C Am             
The house of wolves you built
      Em G 
Will burn just like a thousand suns

 C Am 
When you die, the only kingdom you'll see
    Em G 
Is 2 foot wide and 6 foot deep


C   -   Am   -   Em   -   G X2 (for he instrumental part including the YEAH)


 C Am 
When you die, the only kingdom you'll see
    Em G 
Is 2 foot wide and 6 foot deep
(HEAVIER STRUMMING IS OPTIONAL FOR THE NEXT 2 LINES)
 C Am 
When you die, the only kingdom you'll see
    Em G 
Is 2 foot wide and 6 foot deep


 C    -    Am    -    Em    -    G C Am Em G 
Brick by brick by brick
 C Am Em G 
Brick by brick by brick
 C Am          
Brick by brick by brick
       Em G 
These walls begin to cave in
     C Am 
The house of wolves you built
 Em G 
Whispers in a thousand tongues

 C Am          
Brick by brick by brick
       Em G 
These walls begin to cave in
     C Am 
The house of wolves you built
      Em G 
Will burn just like a thousand suns


 C    -    Am    -    Em    -    G C Am 
You said you want me
         Em G 
Now I'm here, now I'm here, now I'm here
 C Am 
You said you want me
         Em G 
N

Hospital For Souls Acoustic Tabs by Bring Me The Horizon

 -------------------------------------------------------------------------------
                             Hospital For Souls Acoustic - Bring Me the Horizon
-------------------------------------------------------------------------------
: joanofarch

Tuning: standard

Capo on 3

Hi! . I looked for easy, acoustic tabs/videos for this song and did
not see any. It will not be exactly like the song (obviously). I made this tab to look
pretty simple. I hope it is clear enough. If you have any suggestions to make it better, 
let me know!

Chords: G#5, F, Dm, Em



:39 to 1:05

e|-10---11---8------10---11---8------------|
B|-------------8---------------8-----------|
G|-----------------------------------------|
D|-----------------------------------------|
A|-----------------------------------------|
E|-----------------------------------------|

1:06 to 1:34

Play the chords very fast strumming down. Listen to the song to know when the chords change.

       G#5               F                Dm              Em
e|-0-----------  e|-0-----------  e|-4-----------  e|-0-----------|
B|-0-----------  B|-4-----------  B|-6-----------  B|-0-----------|
G|-5-----------  G|-5-----------  G|-5-----------  G|-0-----------|
D|-5-----------  D|-6-----------  D|-0-----------  D|-5-----------|
A|-0-----------  A|-0-----------  A|-x-----------  A|-5-----------|
E|-0-----------  E|-x-----------  E|-x-----------  E|-x-----------|


1:35 to 2:16

Strumming: down, down, down, up, down, down, down slowly and quietly.
Change chords when done with the strumming pattern

2:17 to 2:44

Same strumming, but a little louder

2:45 to 3:11

Very fast strumming, down

3:12 to 5:35

Back to old strumming ddduddd

5:39 to 6:37

Very fast strumming downward. Let the last strum ring out at the end of the song.

Susan Enan – Bring On The Wonder chords V3

 I believe this is the most accurate version here. Feel free to give feedback
http://www.susanenan.com/

 Bb       113331
 C        335533
 Cm       x35543
 Dm       x57765
 Eb       x68886
 F        133211
 Gm       355333 

 Gm Dm F Gm C Bb Gm 
I can't see the stars any more living here
 C Eb Bb 
Let's go to the hills where the outlines are clear
 Eb Bb F Bb Gm 
Bring on the wonder bring on the song
 Eb Bb F Gm 
I pushed you down deep in my soul for too long

 C Bb Gm 
I fell through the cracks at the end of our street
 Cm Dm Eb Bb 
Let's go to the beach get the sand through out feet
 Eb Bb F Gm  
Bring on the wonder bring on the song
 Eb Bb F Gm 
I pushed you down deep in my soul for too long
 Eb Bb F Gm  
Bring on the wonder we got it all wrong
 Eb Bb F Gm  
We pushed you down deep in our souls for too long

 Eb Bb F Gm  (play  A  few times then stick with  Gm )

 C Gm 
I don't have the time for a drink from the cup
 C                               Rb            Bb 
Let's rest for a while 'til our souls catch us up
 Eb Bb F Bb Gm 
Bring on the wonder bring on the song
 Eb Bb F Gm 
I pushed you down deep in my soul for too long
 Eb Bb F Gm  
Bring on the wonder we got it all wrong
 Eb Bb F Gm  
We pushed you down deep in our souls for too long
 Eb Bb F Gm  
Bring on the wonder we got it all wrong
 Eb Bb F Gm  
We pushed you down deep in our souls for too long

Oh You Bring chords – Praise And Worship

 INTRO:
 G  / / / | / /  Am  / |  Em  / / / | / /  D/F#  / | 

VERSE 1: 
       G  
Oh You bring hope to the hopeless 
         D  
And light to those in the darkness 
         Am Em  
And death to life 
          C D  
Now I'm alive 
       G  
Oh You give peace to the restless 
         D  
And joy to homes that are broken 
   Am Em  
I see You now 
     C D  
In You I'm found 

CHORUS: 
                C D  
And You opened the door for me 
               Em  
And You laid down 
         D/F# G  
Your life to set me free 
 C D G  / / / | / /  Am  / |Em / / / | / /  D/F#  / | 
All that I am will serve You Lord     (2nd x)  Em  /  D/F#  / |  G  / / / | 

VERSE 2: 
Oh You fill those who are empty 
And rescue those in the valley 
And through it all You calm my soul 
Oh You find me in my weakness 
And heal the wounds of my heartache 
I worship You in spirit and truth 

CHORUS 2: 
And You opened my eyes to see 
All the wonder and awe of Christ in me 
Jesus You're everything I need 

BRIDGE: 
 G  
    All honour 
 D  
    All glory 
 Am Em C  
    All praise to You

Can You Feel My Heart Tabs by Bring Me The Horizon V3

 ( @sheeransdearest on twitter)

Okay so basically this is the intro I play. I'm pretty sure it's right but the last e 
doesn't have to be correct. I played it by ear on the piano and tried to tab it, so please 
don't be angry with me if it's wrong.

e |----------------------------------------------------|
H |-0--0--0--3-1--0--0--0-3-1--0--0--0--3-1--0--0--0---|
G |----------------------------------------------------|
D |--------------------------------------------------2-|
A |----------------------------------------------------|
E |----------------------------------------------------|

You can play it either twice ooor you can do it like me. I just leave the first h out 
and strum the cords.

e |-C------------Am-------------Em-------------G--------|
H |-C--0--0--3-1-Am--0--0--3-1--Em--0--0-3-1---G--0--0--|
G |-C------------Am-------------Em-------------G--------|
D |-C------------Am-------------Em-------------G------2-|
A |-C------------Am-------------Em-------------G--------|
E |-C------------Am-------------Em-------------G--------|

The cords for the rest of the song are C Am Em G.
You can continue strumming, D D D DU would be a really easy pattern and is the same 
rythm as the intro picking, but you can do whatever pattern you like. When there's no 
singing, you can also play the inro picking, I think it sounds pretty rad.

I really hope I could help you with this :) Keep going and btw you rock bc bmth okay

Join The Club Tabs by Bring Me The Horizon

 Intro: Riffs

e|--------------------------|
B|--------------------------|
G|------8~-5h6p5------------|X8
D|--3-8---------------------|X8
A|--------------------------|
D|--------------------------|

Refrain: Chords

e|-------------------------------|
B|-------------------------------|
G|-----8---------8---------------|X2
D|--3--8X2--3----8X3--6----------|X2
A|--3--6----3X2--6----6X13-------|X2
D|--3-------3---------6----------|X2

Interlude: Riff

e|--------------------------|
B|--------------------------|
G|------8~-5h6p5------------|X2
D|--3-8---------------------|X2
A|--------------------------|
D|--------------------------|

Interlude: Chords

e|-----------|
B|-----------|
G|--10~------|
D|--10~------|
A|-----------|
D|-----------|

Well join the club!

e|-------------------------------|
B|-------------------------------|
G|-------------------------------|
D|--0----8----x----6-------------|
A|--0X2--8X3--xX2--6X3-----------|
D|--0----8----x----6-------------|

Interlude: Riff

e|--------------------------|
B|--------------------------|
G|------8~-5h6p5------------|X2
D|--3-8---------------------|X2
A|--------------------------|
D|--------------------------|

Interlude: Chords

e|-----------|
B|-----------|
G|--10~------|
D|--10~------|
A|-----------|
D|-----------|

Well join the club!

e|-------------------------------|
B|-------------------------------|
G|-------------------------------|
D|--0----8----x----6-------------|
A|--0X2--8X3--xX2--6X3-----------|
D|--0----8----x----6-------------|

Interlude 2: Chords

e|---------------------------|----------------------------------|
B|---------------------------|----------------------------------|
G|---------------------------|----------------------------------|
D|--3^--3--x----3^--3--1\12--|--3^--3--x----0-------------------|X2
A|------3--xX4------3--1\12--|------3--xX4--0X3-----------------|X2
D|------3--x--------3--1\12--|------3--x----0-------------------|X2

Refrain: Chords

e|-------------------------------|
B|-------------------------------|
G|-----8---------8---------------|X4
D|--3--8X2--3----8X3--6----------|X4
A|--3--6----3X2--6----6X13-------|X4
D|--3-------3---------6----------|X4

Refrain: Riffs (Do you think you're the only one..?)

e|-------------------------------------|
B|-------------------------------------|
G|--8^8^8^5-X2--5^5^5^5----------------|X2
D|-------------------------------------|
A|-------------------------------------|
D|-------------------------------------|

Interlude 2: Chords

e|---------------------------|----------------------------------|
B|---------------------------|----------------------------------|
G|---------------------------|----------------------------------|
D|--3^--3--x----3^--3--1\12--|--3^--3--x----0-------------------|X2
A|------3--xX4------3--1\12--|------3--xX4--0X3-----------------|X2
D|------3--x--------3--1\12--|------3--x----0-------------------|X2

Soft piano...

Refrain: Chords

e|-------------------------------|
B|-------------------------------|
G|-----8---------8---------------|X4
D|--3--8X2--3----8X3--6----------|X4
A|--3--6----3X2--6----6X13-------|X4
D|--3-------3---------6----------|X4

Refrain: Riffs (Do you think you're the only one..?)

e|-------------------------------------|
B|-------------------------------------|
G|--8^8^8^5-X2--5^5^5^5----------------|X2
D|-------------------------------------|
A|-------------------------------------|
D|-------------------------------------|

End: Chords

e|---------------------|
B|---------------------|
G|---------------------|
D|--3^--3--------------|
A|------3X6------------|
D|------3--------------|

Chasing Rainbows Tabs by Bring Me The Horizon

 Intro: Riffs

e|------------------------------------------------------------------|
B|------------------------------------------------------------------|
G|----------12121212\15151515\10101010------------------------------|
D|---8\5-X4---------------------------------------------------------|
A|------------------------------------------------------------------|
D|------------------------------------------------------------------|

e|------------------------------------------------------------------|
B|------------------------------------------------------------------|
G|----------12121212\15151515\10101010--13h14p13--------------------|
D|---8\5-X4---------------------------------------------------------|
A|------------------------------------------------------------------|
D|------------------------------------------------------------------|

Intro: Chords

e|----------------------------------|
B|----------------------------------|
G|----------------------------------|
D|---10----6----3-------------------|
A|---10X8--6X4--3X4-----------------|X3
D|---10----6----3-------------------|

Interlude: Chords

e|---------------------------------------------|
B|---------------------------------------------|
G|---------------------------------------------|
D|---10~-6~-3~--X4|--6----8----3~----3---------|
A|---10~-6~-3~--X4|--6X8--8X8--3~X3--3X3-------|
D|---10~-6~-3~--X4|--6----8----3~----3---------|

Refrain: Riffs

e|------------------------------------------------------------------|
B|------------------------------------------------------------------|
G|----------12121212\15151515\10101010------------------------------|
D|---8\5-X4---------------------------------------------------------|
A|------------------------------------------------------------------|
D|------------------------------------------------------------------|

e|------------------------------------------------------------------|
B|------------------------------------------------------------------|
G|----------12121212\15151515\10101010--13h14p13--------------------|
D|---8\5-X4---------------------------------------------------------|
A|------------------------------------------------------------------|
D|------------------------------------------------------------------|

e|------------------------------------------------------------------|
B|--11-13-16X3--11-13-16x5----8-11-13X3---6-8-4-3h4p3~--------------|X2
G|------------------------------------------------------------------|
D|------------------------------------------------------------------|
A|------------------------------------------------------------------|
D|------------------------------------------------------------------|

Refrain: Chords

e|----------------------------------|
B|----------------------------------|
G|----------------------------------|
D|---10----6----3-------------------|
A|---10X8--6X4--3X4-----------------|X4
D|---10----6----3-------------------|

Interlude: Chords

e|----------------|-----------------------|--------------------------|
B|----------------|-----------------------|--------------------------|
G|----------------|-----------------------|--------------------------|
D|---10~-6~-3~--X4|--6----8----3~----1~---|--6~--8~--3~--1~----------|
A|---10~-6~-3~--X4|--6X8--8X8--3~X3--1~X3-|--6~--8~--3~--1~----------|
D|---10~-6~-3~--X4|--6----8----3~----1~---|--6~--8~--3~--1~----------|

Refrain: Riffs

e|------------------------------------------------------------------|
B|------------------------------------------------------------------|
G|----------12121212\15151515\10101010------------------------------|
D|---8\5-X4---------------------------------------------------------|
A|------------------------------------------------------------------|
D|------------------------------------------------------------------|

e|------------------------------------------------------------------|
B|-------

Blessed With A Curse solo Tabs by Bring Me The Horizon V2

 Example in this video/Ejemplo en este vídeo: http://www.youtube.com/watch?v=Mx1sR-kIP78

Intro

e|-----------------------------------------------------------------|
B|-----------------------------------------------------------------|
G|--5--4--2~----5--7--12-------------------------------------------| 
D|--7--5--3~----7--9--14--8~---------------------------------------|
A|-----------------------------------------------------------------|
D|-----------------------------------------------------------------|

Solo in 3:07


e|----------------10-13-15-17^17-15p13-15\18-15~-------------------|
B|---------11-8~---------------------------------------------------|
G|---7-10----------------------------------------------------------|
D|-----------------------------------------------------------------|
A|-----------------------------------------------------------------|
D|-----------------------------------------------------------------|

e|-----------------------------------------------------------------|
B|-----------------------------------8-6-3-------------------------|
G|--------------------------------7^-------------------------------| 
D|--5-8-10^10^10^10p8-5~--333~-------------------------------------|
A|-----------------------------------------------------------------|
D|-----------------------------------------------------------------|

e|-----------------------------------------------------------------|
B|-----------------------------------------------------------------|
G|--5p3-5p3--------------------------------------------------------|
D|----------5p3-5p3------------------------------------------------|
A|------------------5p3-5p3--3p1-3p1-------------------------------|
D|-----------------------------------5p3 5p3-5~--------------------|


Riffs in 3:29
e|-----------------------------------------------------------------|
B|-----------------------------------------------------------------|
G|--7-10-12-12\15-12~----7-10-12\15-12-15-15\17-15-17-17^17p15-12~-| 
D|-----------------------------------------------------------------|
A|-----------------------------------------------------------------|
D|-----------------------------------------------------------------|

e|-------------------------------------------------------------------------|
B|-----------------------------11------------------------------------------|
G|---12-15-17-17^17p15-17~---7----10-12~--101010-88-7-8p7~--555-33-2-3p12--| 
D|-------------------------------------------------------------------------|
A|-------------------------------------------------------------------------|
D|-------------------------------------------------------------------------|

e|-----------------------------------------------------------------|
B|-----------------------------------------------------------------|
G|--10-12-14-14^14p12-14^-1010~------10-12-14-14^14p12-14^-1212----| 
D|-----------------------------------------------------------------|
A|-----------------------------------------------------------------|
D|-----------------------------------------------------------------|

e|--151515-131313-111111-101010-11p10~-----888-66-5-6p5~-----------|
B|-----------------------------------------------------------------|
G|-----------------------------------------------------------------| 
D|-----------------------------------------------------------------|
A|-----------------------------------------------------------------|
D|-----------------------------------------------------------------|

You Dont Bring Me Flowers chords – Barbra Streisand

 (verse 1)
 C G F 
You don't bring me flowers
                    C 
You don't sing me love songs
 F C 
You hardly talk to me anymore
       F Dm 
When you come thru the door
         C G 
At the end of the day

I remember when

 C G F 
You couldn't wait to love me
                   C 
Used to hate to leave me
             F Dm G 
Now after lovin' me late at night
             C F  -  Dm  
When it's good for you
              G 
And you're feelin' alright
           C Em 
Well you just roll over
      Am Fm 
And turn out the light
 C G C  -  G  -  F  -  G  
And you don't bring me flowers anymore




(verse 2)
 C G F 
It used to be so natural
                   C 
To talk about forever
 F C 
But "used to be's" don't count anymore
        F Dm  
They just lay on the floor
           C G 
'Til we sweep them away
       C G  -  F  
And baby, I remember
                       C 
All the things you taught me
                    F 
I learned how to laugh
         Dm G 
And I learned how to cry
          C F 
Well I leared how to love
     Dm G 
Even learned how to lie
         C Em 
You'd think I could learn
         Am Fm 
How to tell you goodbye
 C G C  -  G  -  F  -  G 
'Cause you don't bring me flowers anymore 


(ending)
            C Em Am Fm 
Well you think I could learn How to tell you goodbye
 C G C G 
You don’t say you need me. You don’t sing me a love song.
 C F G C 
You don't bring me flowers   anymore. 

Bring Me Sunshine chords – Morecambe And Wise

  Sam de Brunner
Tuning: Standard
Capo: 4
Chords relative to capo


 D7 G 
Bring me sunshine
         Am 
In your smile
 D7 Am 
Bring me laughter
         G 
All the while
         G7 
In this world where we live
              C 
There should be more happiness
         A7 
So much joy you can give
         D7 
To each brand new bright tomorrow

         G 
Make me happy
             Am 
Through the years
 D7 Am 
Never bring me
     G 
Any tears
          G7 
Let your arms be as warm
        C 
As the sun from up above
          A7 
Bring me fun
          D7 
Bring me sunshine
          G 
Bring me Love

 D7 G          
Bring me sunshine
         Am 
In your smile
 D7 Am 
Bring me laughter
         G 
All the while
         G7 
In this world where we live
              C 
There should be more happiness
         A7 
So much joy you can give
         D7 
To each brand new bright tomorrow

         G 
Make me happy
             Am 
Through the years
 D7 Am 
Never bring me
     G 
Any tears
          G7 
Let your arms be as warm
        C 
As the sun from up above
          A7 
Bring me fun
          D7 
Bring me sunshine
          G Am 
Bring me Love, sweet love
          A7 
Bring me fun
          D7 
Bring me sunshine
          G 
Bring me Love

Hey!

Can You Feel My Heart Tabs by Bring Me The Horizon V2

 Drop D-Tuning

There is a pretty nice tab online, i just added some small corrections.



Synth Intro

e|-7-7-7-10-8-7-7---7-10-8-7-7-7-10-8-7-7---7---7---7--7|
B|----------------5-----------------------5---5---5-----|
G|------------------------------------------------------|
D|------------------------------------------------------|
A|------------------------------------------------------|
D|------------------------------------------------------|

Guitar Chords

e|-----------------------------------------|
B|-----------------------------------------|
G|-5---2-------------2---5-----------------|
D|-5---2---2-----5---2---5---2-------------|
A|-3---0---2-----5---0---3---2-------------|
D|---------2-----5-----------2-------------|
           ^
         hold it pretty long


Riff
e|---------------------------------------------|
B|---------------------------------------------|
G|-----------------------4---------------------|
D|-------------------5----------7p5------------|
A|--5/7---------5--7------------------7--------|
D|---------------------------------------------|

e|---------------------------------------------|
B|---5--5--5--5--------------------------------|
G|---------------4---5(hold)-------------------|
D|---------------------------------------------|
A|---------------------------------------------|
D|---------------------------------------------|


e|---------------------------------------------|
B|---------------------------------------------|
G|--------4------------------------------------|
D|--5--7-----7--5------------------------------|
A|------------------7(hold)--------------------|
D|---------------------------------------------|


Synth Bridge
e|----------7--------------7---------------------|
B|--8-----7----5-7-8-----7-----------------------|
G|-----------------------------------------------|
D|-----------------------------------------------|
A|-----------------------------------------------|
E|-----------------------------------------------|

Chorus

e|-----------------------------------------|
B|-----------------------------------------|
G|-5---2-------------2---5-----------------|
D|-5---2---2-----5---2---5---2-------------|
A|-3---0---2-----5---0---3---2-------------|
D|---------2-----5-----------2-------------|
           ^
         hold it pretty long


All thanks to pakopako for his great tab!

Go To Hell For Heavens Sake Tabs by Bring Me The Horizon V2

 Drop C

D||-------|------------------------|------------------------|
A||-------|------------------------|------------------------|
F||-------|------------------------|------------------------|
C||-------|--7---7---7--7---7---7--|--7---7---7--3---3---3--|
G||-------|--7---7---7--7---7---7--|--7---7---7--3---3---3--|
C||-------|--7---7---7--7---7---7--|--7---7---7--3---3---3--|


------------------------|------------------------|------------------------|
------------------------|------------------------|-------------3---3---3--|
------------------------|------------------------|-------------2---2---2--|
--5---5---5--5---5---5--|--5---5---5--5---5---5--|--0---0---0--0---0---0--|
--5---5---5--5---5---5--|--5---5---5--5---5---5--|--0---0---0--0---0---0--|
--5---5---5--5---5---5--|--5---5---5--5---5---5--|--0---0---0--0---0---0--|


------------------------|------------------------|------------------------|
-------------5---5---5--|------------------------|------------------------|
-------------4---4---4--|------------------------|------------------------|
--0---0---0--2---2---2--|--3---3---3--3---3---3--|--3---3---3--3---3---3--|
--0---0---0--2---2---2--|--3---3---3--3---3---3--|--3---3---3--3---3---3--|
--0---0---0--2---2---2--|--3---3---3--3---3---3--|--3---3---3--3---3---3--|


------------------------|------------------------|------------------------|
------------------------|------------------------|------------------------|
------------------------|------------------------|------------------------|
--7---7---7--7---7---7--|--7---7---7--3---3---3--|--5---5---5--5---5---5--|
--7---7---7--7---7---7--|--7---7---7--3---3---3--|--5---5---5--5---5---5--|
--7---7---7--7---7---7--|--7---7---7--3---3---3--|--5---5---5--5---5---5--|


------------------------|------------------------|------------------------|
------------------------|-------------3---3---3--|-------------5---5---5--|
------------------------|-------------2---2---2--|-------------4---4---4--|
--5---5---5--5---5---5--|--0---0---0--0---0---0--|--0---0---0--2---2---2--|
--5---5---5--5---5---5--|--0---0---0--0---0---0--|--0---0---0--2---2---2--|
--5---5---5--5---5---5--|--0---0---0--0---0---0--|--0---0---0--2---2---2--|


------------------------|------------------------|
------------------------|------------------------|
------------------------|------------------------|
--3---3---3--3---3---3--|--3---3---3--3---3---3--|
--3---3---3--3---3---3--|--3---3---3--3---3---3--|
--3---3---3--3---3---3--|--3---3---3--3---3---3--|


----------------------------------|----------------------------------|
----------------------------------|----------------------------------|
----------------------------------|----------------------------------|
----------------------------------|----------------------------------|
----------------------------------|----------------------------------|
--7-7-7-7-7-7-7-7-7-7-7-7-7-7-7-7-|--7-7-7-7-7-7-7-7-7-7-7-7-7-7-7-7-|



----------------------------------|----------------------------------|
----------------------------------|----------------------------------|
----------------------------------|----------------------------------|
----------------------------------|----------------------------------|
----------------------------------|----------------------------------|
--5-5-5-5-5-5-5-5-5-5-5-5-5-5-5-5-|--5-5-5-5-5-5-5-5-5-5-5-5-5-5-5-5-|

----------------------------------|
----------------------------------|
----------------------------------|
----------------------------------|
----------------------------------|
--3-3-3-3-3-3-3-3-3-3-3-3-3-3-3-3-|

---------------------------------------------|-------------------|
---------------------------------------------|-------------------|
---------------------------------------------|-------------------|
---------------------------------------------|-------------------|
----------------------------------------

Sleepwalking Acoustic chords – Bring Me The Horizon

 ! enjoy


Standard Tuning

CAPO 6


 C Am Em                                                      
My secrets are burning a hole through my heart
         G          
And my bones catch a fever
 C Am 
When it cuts you up this deep
  Em G 
It's hard to find a way to breathe
 C Am 
Your eyes are swallowing me
 Em 
Mirrors start to whisper
 G 
Shadows start to sing
 C Am 
My skin's smothering me
 Em G 
Help me find a way to breathe

 C Am 
Time stood still
  Em G 
The way it did before
 C Am Em G 
It's like I'm sleepwalking
 C Am Em G 
Fell into another hole again
 C Am Em G 
It's like I'm sleepwalking

 C Am 
I'm at the edge of the world
 Em 
Where do I go from here?
 G 
Do I disappear?
 C Am 
Edge of the world
 Em 
Should I sink or swim?
 G 
Or simply disappear?

 C Am 
Your eyes are swallowing me
 Em 
Mirrors start to whisper
 G 
Shadows start to sing
 C Am 
My skin's smothering me
 Em G 
Help me find a way to breathe

 C Am 
Time stood still
  Em G 
The way it did before
 C Am Em G 
It's like I'm sleepwalking
 C Am Em G 
Fell into another hole again
 C Am Em G 
It's like I'm sleepwalking

 C 
Wake up!
 Am 
Take my hand 
 Em G 
Give me a reason to start again
 C 
Wake up!
 Am 
Take my hand 
 Em G 
Give me a reason to start again

 C Am 
Your eyes are swallowing me
 Em 
Mirrors start to whisper
 G 
Shadows start to sing
 C Am 
My skin's smothering me
 Em G 
Help me find a way to breathe

 C Am 
Time stood still
  Em G 
The way it did before
 C Am Em G 
It's like I'm sleepwalking
 C Am Em G 
Fell into another hole again
 C Am Em G 
It's like I'm sleepwalking

Bring You Back chords – Brett Eldredge V2

 Em C 
It happened on a Sunday,
 G G/B 
Outside and the sun was shinning.
 Em C 
That look on your face 
 G G/B 
Oh it hit me so hard inside.
 Em C 
I could see how the light was fading 
 G G/B 
from your pretty blue eyes and
 Em C 
all I needed were the right words,
  G G/B 
but they were so hard to find.

 G                              
In a second my world changed
 Em 
So fast that my heart was breaking
 C 
I wrapped my arms around you 
 D 
and I just kept saying your name 
 G 
i put your hands in my hands 
 Em 
and we dropped to the floor board crying 
 C Am 
at the moment your heart gave up on us

I told you,
 G Em  
ill bring you back, ill bring you back, 
 C D 
ill bring you back to love
         G Em 
I will, bring you back, ill bring you back, 
 C D 
Ill bring you back to love

 Em C 
I kissed your tears all falling down
 G G/B 
Said baby, you’ll always be the one
 Em C 
Aw baby im never going to turn around
 G G/B 
Your all the life I have in these lungs

 Em C 
We can all be skeptics
 G G/B 
Never certain of what it is we want
 Em C 
All the fears we should confess
 G G/B 
Holding our breath just dying to speak up

 G 
In a second my world changed
 Em 
So fast that my heart was breaking
 C 
I wrapped my arms around you
 D  
and I just kept saying your name 
 G 
i put your hands in my hands 
 Em 
and we dropped to the floor board crying 
 C Am 
at the moment your heart gave up on us

I told you, 
 G Em 
ill bring you back, ill bring you back, 
 C D 
ill bring you back to love
         G Em 
I will, bring you back, ill bring you back, 
 C D 
Ill bring you back to love
 D Em 
I remember that night at your mamas house
 C 
We were so in love, finally said it out loud
 D Em 
I got down on my knees, 
 C                                                        
said you’re the best thing that ever happened to me
 G 
You walking down the isle, 
 C 
I remember it now, 
I remember your smile

I told you, 
 G Em 
ill bring you back, ill bring you back, 
 C D 
ill bring you back to love
         G Em 
I will, bring you back, ill bring you back, 
 C D 
Ill bring you back to love
 G Em C 
Yaaaaaaa
 G Em 
Ill bring you back to love
 C 
Ill bring you back to love