Tag: Brother

Brother chords by Kodaline

====================
 Kodaline - Brother
====================
No capo

[Intro]
Gm Eb Bb Bbsus4 Bb


[Verse 1]
     Gm
When we were young we were the ones
    Eb                                     Bb    Bbsus4 Bb
The kings and queens, oh yeah we ruled the world
          Gm
We smoked cigarettes, man no regrets
     Eb                          Bb   Bbsus4 Bb
Wish I could relive every single word


[Pre-Chorus]
                      Gm                           Eb
We've taken different paths and traveled different roads
                    Bb                                F/A
I know we'll always end up on the same one when we're old
    Gm                                     Eb                      Bb
And when you're in the trenches and you're under fire I will cover you


[Chorus]
         Eb          Gm
If I was dying on my knees
                 Bb            Eb
You would be the one to rescue me
       Eb                  Gm
And if you were drowned at sea
                Bb                 Eb
I'd give you my lungs so you could breathe

             Eb
I've got you brother
     Dm      Gm     F/A Bb   
I've got you brother
     Bb/D    Eb
I've got you brother
     Dm      Gm     F/A Bb
I've got you brother


[Verse 2]
   Gm                             Eb
Oh brother, we go deeper than the ink
                           Bb   Bbsus4 Bb
Beneath the skin of our tattoos
       Gm
Though we don't share the same blood
          Eb                             Bb        Bbsus4 Bb
You're my brother and I love you, that's the truth


[Pre-Chorus]
                       Gm                 Eb
We're living different lives, heaven only knows
                 Bb                                F/A
If we'll make it back with all our fingers and our toes
Gm                Eb                             Bb
5 years, 20 years come back, we'll always be the same


[Chorus]
         Eb          Gm
If I was dying on my knees
                 Bb            Eb
You would be the one to rescue me
       Eb                  Gm
And if you were drowned at sea
                Bb                 Eb
I'd give you my lungs so you could breathe

             Eb
I've got you brother
     Dm      Gm     F/A Bb   
I've got you brother


[Bridge]
                          Eb
And if we hit on troubled water
                   Gm                F
I'll be the one to keep you warm and safe
                           Eb
And we'll be carrying each other
                 Gm               F
Until we say goodbye on our dying day

                     Eb
Because I've got you brother
     Dm      Gm     F/A Bb   
I've got you brother
     Bb/D    Eb
I've got you brother
     Dm      Gm     F/A Bb
I've got you brother


[Chorus]
         Eb          Gm
If I was dying on my knees
                 Bb            Eb
You would be the one to rescue me
       Eb                  Gm
And if you were drowned at sea
                Bb                 Eb
I'd give you my lungs so you could breathe


[Break]
      Eb            Gm
Oh oh oh, oh oh, oh oh
            Bb            Eb
Oh oh oh oh oh, oh oh, oh oh
      Eb            Gm
Oh oh oh, oh oh, oh oh
            Bb            Eb
Oh oh oh oh oh, oh oh, oh oh


[Outro]
             Eb
I've got you brother
     Dm      Gm     F/A Bb   
I've got you brother

Chloe intro Tabs – Little Brother Vsion 2

 -------------------------------------------------------------------------------
                             CHLOE - Little Brother
-------------------------------------------------------------------------------
: Thomas Harrison
 tomjar8.au

Tuning: E standard
Capo: 2nd fret

e|-------------5--2-2h3p2-0----------|
B|---3p0-3s5----------------0--------|
G|-----------------------------------|
D|-----------5-----------------------|
A|-3---------------------------------|
E|-----------------------------------|

e|---------------5---2-2h3p2-0-------|
B|-----3p0-3s5----------------0------|
G|-----------------------------------|
D|--0h2--------5---------------------|
A|-3---------------------------------|
E|-----------------------------------|

Just my take on the intro, John's version probably isn't exactly like this.

************************************

| /   slide up
| \   slide down
| h   hammer-on
| p   pull-off
| ~   vibrato
| +   harmonic
| x   Mute note
| b   Bend
| pb  Pre-bend
| br  Bend release
| pbr Pre-bend release
| brb Bend release bend

************************************

Lost As chords – Brother And Bones

 (capo 3)
Verse 1
 G Bm D A 
Show me hope is watertight,
    G Bm D A 
An anchor for these lonely nights
            G D Bm A G Em 
Cos this sinking ship has land in sight
       G D Bm A G D  
Until all is lost as one, ‘til all is lost as one

Verse 2
Even love gets cold at night
So turn the other cheek with your lips sealed tight
And winter hold your breath tonight
Until all is lost as one, ‘til all is lost as one

Interlude
 Bm G D  x2

Verse 3
If only time was paper thin
Not these four walls that keep us in
This sleepless dream we’re drowning in
Until all is lost as one, ‘til all is lost as one

Pre-chorus
           A Bm G 
Wont you send me, wont you send me your burden
      A Bm G A G D 
And I’ll be, I’ll be begging to show you how mercy began

Interlude

Chorus
 Bm G D 
See how far we’ve come,
    Bm G D 
If all is lost as one
 Bm G D 
See how far we’ve come,
    Bm G D 
If all is lost as one
    Bm G D Bm G D 
If all is lost as one, if all is lost as one

Untukmu Aku Bertahan Ost My Idiot Brother chords by Ada Band

 Untukmu Aku Bertahan (OST My Idiot Brother)

[Intro]  D# Dm G Cm F A# D 
Tenanglah kekasihku
 Gm F D# F 
 Ku tahu hatimu menangis
   A# D 
Beranilah tuk percaya
 Gm F C 
 Semua ini pasti berlalu
    D# Dm 
Meski takkan mudah
 Gm Cm 
Namun kau takkan sendiri
 F 
Ku ada di sini

[Chorus]
 A# D# 
 Untukmu aku akan bertahan
 Cm F A# 
 Dalam gelap takkan ku tinggalkan
 G# G Cm D#m A# 
 Engkaulah teman sejati kasihku
      F  
Di setiap hariku

 A# D# 
 Untuk hatimu ku kan bertahan
 Cm F A# 
 Sebentuk hati yang ku nantikan
 G# G Cm    
 Hanya kau dan aku yang tahu
   A# F A# 
Arti cinta yang t'lah kita punya

[Intro]  D# Dm G Cm F A# D 
Beranilah tuk percaya
 Gm F C 
 Semua ini pasti berlalu
    D# Dm 
Meski takkan mudah
 G Cm 
Namun kau takkan sendiri
 F D# 
Ku ada di sini

    F G C 
houo.. oo. houo..

[Chorus] [Overtone]
                  F 
Untukmu aku akan bertahan
 Dm G C 
 Dalam gelap takkan ku tinggalkan
 A# A Dm Fm C 
 Engkaulah teman sejati kasihku
      G 
Di setiap hariku

 C F 
 Untuk hatimu ku kan bertahan
 Dm G C 
 Sebentuk hati yang ku nantikan
 A# A Dm 
 Hanya kau dan aku yang tahu
   C G 
Arti cinta yang t'lah kita punya

[Outro]  F Em A Dm G C

The Way We Live chords – Johnny Rivers

 G Am 
You ask me why I don't smile
          Em Am 
Is there something troublin' me
 C G Em 
Just open your eyes and look around
 Am G 
And tell me what do you see

Can you understand the things people do
And the way they treat each other
And tell me how far has man really come
When today he's still killing his brother

 Am Em 
It makes no difference where you do it
 Am D 
Or what name you use
 Bb F Dm 
I know if things keep going this way
 Bb F 
Everyone's gonna lose
 Bb F D 
Everybody's gonna lose

We're doing alright with material things
You can tell by the way we live
But with all these things man has learned how to do
Still hasn't learned how to give

If you don't have the answers right now
I'll see you after a while
But if next time I still look this way
You'll know why I don't smile...

Notes:
- Intro and outro same as verses.
- These are just the root chords.  There are probably added 7ths, 6ths, and other things.
- I'm not certain about the Am at the end of each verse... keep going back and forth on 
how it sounds.
- If there are errors, suggestions, or improvements, PM me or comment.

Lucca chords – Jaymay

 C D 
You should know I could never hold your photo
                    G C 
it trembled in my hand and I had to let it go
           Am D 
And the people came and the people went
        G C 
And the cards and the flowers and the food was sent


             Am 
I saw your mom
            D 
I saw your dad
             G 
I saw your sisters
                      C 
Your brothers and the house you had
          Am D 
And it's strange to be with a family

Who keeps saying:
 G C 
"Say something 'fore the food goes bad,"



What are we to make
                        G 
What are we to make of this?
 C 
We are just adults
                      G C 
And you were just a little crazy kid


 Am D 
The living room lights were dim
         G C 
I saw you in your brother when I looked at him
         Am D 
And it brought back painful memories
        G C 
Of the pool and the fool on piano keys


          Am D 
And I had no idea how to be myself
       G C 
I've forgotten what it's like to think of someone else
          Am D 
And it's strange to be a with a family who keeps saying:
         G C 
"Only I see how you look in at me,"



What are we to make
                        G 
What are we to make of this?
 C 
We are just adults
                      G C 
And you were just a little crazy kid


          Am D 
We drove home long after the sky grew dark
         G C 
We sat alone a little while after the car was parked
              Am D 
We felt the luckiest of our entire lives, husbands said
    G C 
"I love you" that night when they kissed their wives


                 Am D 
'Cause it's the greatest relief when it isn't your own kid
               G C 
But it's the greatest grief when it is
                Am D 
And it's the greatest sorrow losing what you love
             G C 
But what's worst is wondering why you did



What are we to make
                        G 
What are we to make of this?
 C 
We are just adults
                      G C 
And you were just a little crazy kid



What are we to make
                        G             
What are we to make of this?
 C 
We are just adults
                        G C Am 
And you are just water under the bridge

Orphans Of God chords – Avalon V2

 Orphans of God – Avalon

Intro:

 G/B C D Em G/B C D Em 


Verse 1:

 G/B C D Em D 
Who here among us has not been broken
 G/B C Dsus D 
Who here among us is without guilt or pain
 G/B C D Em 
So oft abandoned by our transgressions
    G/B C 
If such a thing as grace exists
      Gm/A# Am Dsus - D 
Then grace was made for lives like this

Chorus 1:

               Em C G D 
There are no strangers, there are no outcasts
               Em C Dsus - D 
There are no orphans of God
          Em F G/B C 
So many fallen, but halleluiah
                G D G/B C Dsus 
There are no orphans of God

Verse 2:

 G/B C D Em D 
Come ye unwanted and find affection
 G/B C Dsus D 
Come all ye weary, come lay down your head
 G/B C D Em D 
Come ye unworthy, you are my brother
    G/B C 
If such a thing as grace exists
       Gm/A# Am D7 
Then grace was made for lives like this


Chorus 2:

                 Em C G 
There are no strangers, there are no outcasts
               Em C Dsus - D 
There are no orphans of God
          Em F G/B C 
So many fallen, but halleluiah
                G D G/B D G 
There are no orphans of God

Verse 3:
 Bb F Bb F 
Oh blessed father, look down upon us
 Bb F Bb F G 
We are Your children, we need Your love
 Bb F Bb F 
We are before Your throne of mercy
 Bb F Bb F G 
And seek Your face to rise above

Chorus 3:

                Gm Eb Bb 
There are no strangers, there are no outcasts
               Gm Eb Fsus - F 
There are no orphans of   God
          Gm G# Bb/D Eb 
So many fallen, but halleluiah
               Bb 
There are no orphans

Chorus 4:

                Gm Eb Bb 
There are no strangers, there are no outcasts
               Gm Eb Fsus - F 
There are no orphans of God
          Gm G# Bb/D Eb 
So many fallen, but halleluiah
               Bb F    
There are no orphans of God

Coda:

 Gm Eb Bb F Gm Eb Bb F Eb

Well Ok Honey chords – Jenny O

 This is a very simple way to play this song.  I hope you enjoy!


 D7 
You are my lover and I do like you

But what's the limit, tell me what to do
              G G7 
I'm not your kind
                D7 
And you're not mine

 D7 
Oh sugar I'm too young for you

Not like my number but in everything I do
        G G7 
I  Am A  child
            D7 
You have a child

 D7 
You wake up early, I do anything I can

But I can fake it while you go and meet the man
               G G7 
And make some money (money!)
             D7 
To make the money

 D7 
Baby baby tell me where you are

I'll come and meet you but you know I can go far
               G G7 
And take some time
                D7 
You can't have mine

 D7 
Well OK honey but I'm too hot for you

Ain't got no money and I wear the hippie shoes
        G G7 
I am a hippie (hippie!)
        D7 
I  Am A  hippie

 D7 
Into another I hope you understand

I'll need you later

I want you in my band
           G G7 
I am your sister (sister!)
                D7 
You're like my brother

Hey Brother solo Tabs by Avicii

 Trumpet Solo
e|-------|--------------------------------------------------------|
B|-------|-----------6-8-8-6---------------6—8h10p8---------------|
G|-------|---------7---------------------7---------10—7p5---------|
D|-8-7---|-5-5-5-8-----------------8---8------------------8-5-5-5-|
A|-------|---------------------8h10-------------------------------|
E|-------|--------------------------------------------------------|

e|-----------------------------------------------------|
B|---------8-8-6--------------6--8-h10p8---------------|
G|-------7------------------7-----------10—7p5---------|
D|---5-8--------------8---8-------------------8-5-5-5--|
A|----------------8h10---------------------------------|
E|-----------------------------------------------------|

 
e|-----------------------------------------------------|
B|------6-8-8-6---------------6—8h10p8-----------------|
G|----7---------------------7---------10—7p5-----------|
D|--8-----------------8---8------------------8-5-5-5---| 
A|---------------8h10----------------------------------|
E|-----------------------------------------------------|

e|------------------------------------|
B|---------8-8-6-----------8-6---6----|
G|-------7---------------------7---5--|
D|---5-8--------------8---------------|
A|----------------8h10----------------|
E|------------------------------------|

      
e|--------------------------------------------------------|
B|-----------6-8-8-6---------------6—8h10p8---------------|
G|---------7---------------------7---------10—7p5---------|
D|-5-5-5-8-----------------8---8------------------8-5-5-5-|
A|---------------------8h10-------------------------------|
E|--------------------------------------------------------|



e|--------------------------------------------------------|
B|---------8-8-6---------------6-8h10p8-------------------|
G|-------7-------------------7----------10—7p5------------|
D|---5-8--------------8----8-------------------8-5--------|
A|----------------8h10------------------------------------|
E|--------------------------------------------------------|

Brother chords – Orphaned Land

 Been looking for these chords for some time, got kinda frustreted by the fact no 
one uploaded them, So I extracted them myself instead of being lazy. so, here 
goes. pretty much accurate, figure riffs on your own. (I rock this song on the uke 
so no metal riffs)

 Orphaned Land
 All is One
Song: Brother (A plea of itzhak to Ishmael)
Tuning: Standard


Verse:

 Am Bm Em C 
This story began before I was born 
 Am Bm Em 
A childless woman cried sadly at home 
 Am Bm Bm/G D C 
Her maid gave birth to a child of her own 
 Am Bm Em 
My father felt joy yet he was torn 
 Am Bm Em C 
A conflict began one day at dawn 
 Am Bm Em 
The maid took your hand and you were gone 
 Am Bm Bm/G D C 
To the desert you left, towards the unknown 
 Am Bm Em 
I reckon you were so alone 


Chorus:

 Am Bm Em 
God will hear you oh, my blood 
 Am Bm Em 
For the years you roamed in dirt and mud 
 Am Bm D G      
Forsaken like a nomad, deserted in the flood 
 F Bm Em 
Forgive me, brother 

You did nothing wrong and took all the shame 
I suffered myself, yet I am to blame 
The lord blessed us both, but we still fight and claim 
That kid on the mountain, - what was his name? 

Brother hear my plea tonight 
I grew tired from these endless years of (Our) fight 
From a tiny corner stone we may build our realm of light
Please hear me, brother

I Cut My Brother In Half Blues Tabs by Dewey Cox

 , please correct away.
I just started playing and was frustrated that I couldn't find tab of this online.
After each line in the verse, just riff within the key using standard pentatonic scale style:
(E3-E6-A3-A4-A5-D3-D5-G3-G5-G6-B3-B5-E3)


Walking in
e--------4------------3-----------2-------------------------------|
b ----5-------------4-----------3---------------------------------|
g----4------4------3-----3-----2-----2----------------------------|
D-------------------------------------------3v--------------------|
A---------------------------------------------------1--2--3v------|
E-----------------------------------------------------------------|

Verse
e----------------------------------------------------------------|
b ---------------------------------------------------------------|
g----------------------------------------------------------------|
D----------------------------------------------------------------|
A---2--2----4--4---2--2----4--4----------------------------------|
E---0--0----0--0---0--0----0--0----------------------------------|

v - vibrato

Mirror Ball chords – Brother Cane

 I believe that BC plays this song in some type of open tuning, but I can't figure out 
which one.  I also think they often tune down a 1/2 step from the open tuning.

All that to say, I have some questions about how correct this one is, but this version 
works for me.  I'm sure there are a couple of errors, and I welcome suggestions to fix 
them.  This song is a bit tricky for my ear.

Chords used: 
Bm     x  2  4  4  3  2
D      x  x  0  2  3  2
A      x  0  2  2  2  0
A(v2)  5  7  7  6  5  5
G      3  2  0  0  0  3  (I like to play it as 320033)
G(v2)  3  5  5  4  3  3
F#m    2  4  4  2  2  2
Dm     x  5  7  7  6  5
G#     4  6  6  5  4  4
B      x  2  4  4  4  2
D(v2)  x  5  7  7  7  5  (I think it sounds fine to play 1st position D here)

Intro:   Bm D A G   (x2)

 Bm D A G Bm D A G 
Spinning mirror ball, hanging over me
 Bm D A G Bm D A G 
Spinning mirror ball, are you listening?
 Bm D A G 
Don't justify or hesitate, feel the sorrow when you wait
 Bm D A G 
Close your eyes and don't ask why; you will need no alibi
 Bm D A G Bm D A G 
Lucky mirror ball, hanging over me

 Bm G (v2)   F#m 
Can you see me now
 Bm G (v2)      F#m 
Come and show me, show me how

 Bm Dm A (v2)
I'm waiting, been standing on the line
 Bm Dm A (v2)
Just waiting, I'm crossing over this time
 Bm Dm A (v2)        D (v2)
Don't save me; looks like I'm finally out of my mind

 Bm D A G   (x2)

 Bm D A G Bm D A G 
Lucky mirror ball, never lie to me
 Bm D A G Bm D A G 
Is it real at all, immortality?
 Bm D A G 
Not satisfied in between, living here with all these things
 Bm D A G 
I can see the other side; do I dare to take that ride?

 Bm Dm A (v2)
I'm waiting, been standing on the line
 Bm Dm A (v2)
Just waiting, I'm crossing over this time
 Bm Dm A (v2)        D (v2)
Don't save me; looks like I'm finally out of my mind

 B A (v2)   B A (v2)

 B A (v2)     B A (v2)
Hold me now, and I will wait
 B A (v2)      B A (v2)
Dreams can lie, and drift away

 B A (v2)   B A (v2)

Guitar solo chords:   Bm D A G Bm D A G Bm D A G 
Spinning mirror ball, are you listening
 Bm D A G Bm D A G 
Spinning mirror ball, never lie to me

 Bm G (v2)   F#m 
Can you see me now
 Bm G (v2)      F#m 
Come and sho

Brother Acoustic Tabs by Alice In Chains V3

 Song: Brother (Unplugged)
Artist: Alice In Chains
 Unplugged

Tuning: Eb, Ab, Db, Gb, Bb, Eb

Chords Used:
   A7   A7sus4   A5   F   G
eb|-0-|----0---|--x-|-1-|-3-----------------
Bb|-2-|----3---|--x-|-1-|-3-----------------
Gb|-0-|----0---|--x-|-2-|-0-----------------
Db|-2-|----2---|--2-|-3-|-0-----------------
Ab|-0-|----0---|--0-|-3-|-2-----------------
Eb|-x-|----x---|--x-|-1-|-3-----------------
___________________________________________________________________________________________

eb|------0-----0------0-----0-------------------------------------------------|
Bb|--2---2-----2--2---2--2--2--2-----2--2-3-5-3-2-----------------------------|
Gb|--0---0--0-----0---0--0-----0--0--0--0-0-0-0-0-----------------------------|   x4
Db|--2---2--2-----2---2--2-----2--2--2--2-3-5-3-2-----------------------------|
Ab|--0---0--------0---0--------0--0--0----------------------------------------|
Eb|---------------------------------------------------------------------------|

eb|---------------------------------------------------------------------------|
Bb|--------------------5b(5)---------------------------5b(5)--------8b(8)-----|
Gb|-------------------------6b(6)----------------------------6b(6)------------|
Db|-----------------5-----------------------------5---------------------------|
Ab|--------3--5--7-----------------------3--5--7------------------------------|
Eb|--3--5--------------------------3--5---------------------------------------|

eb|---------------------------------------------------------------------------|
Bb|--------------------5b(5)--------------------------3-5-3-2-----------------|
Gb|-------------------------6b(6)---------------------0-0-0-0-----------------|
Db|-----------------5-----------------------------5--3-5-3-2------------------|
Ab|--------3--5--7-----------------------3--5--7------------------------------|
Eb|--3--5--------------------------3--5---------------------------------------|

A7
Frozen in the place I hide
A7
Not afraid to paint my sky with
A7
Some who say I've lost my mind
A7
Brother try and hope to find

F                           A7  A7sus4   A7     A5      A7sus4      A7
You were always so far away
F                E  G    
I know that pain so don't you run away
G
Like you used to do


eb|------0-----0------0-----0-------------------------------------------------|
Bb|--2---2-----2--2---2--2--2--2-----2--2-3-5-3-2-----------------------------|
Gb|--0---0--0-----0---0--0-----0--0--0--0-0-0-0-0-----------------------------|  x2
Db|--2---2--2-----2---2--2-----2--2--2--2-3-5-3-2-----------------------------|
Ab|--0---0--------0---0--------0--0--0----------------------------------------|
Eb|---------------------------------------------------------------------------|

eb|---------------------------------------------------------------------------|
Bb|--------------------5b(5)---------------------------5b(5)--------8b(8)-----|
Gb|-------------------------6b(6)----------------------------6b(6)------------|     x2
Db|-----------------5-----------------------------5---------------------------|
Ab|--------3--5--7-----------------------3--5--7------------------------------|
Eb|--3--5--------------------------3--5---------------------------------------|

A7
Roses in a vase of white
A7
Bloodied by the thorns beside the leaves
A7
That fall because my hand is
A7
Pulling them hard as I can

F                             A7  A7sus4   A7     A5      A7sus4      A7
You were always so far away
F
I know that pain
E   G
So I won't run away like I used to do

eb|------0-----0------0-----0-------------------------------------------------|
Bb|--2---2-----2--2---2--2--2--2-----2--2-3-5-3-2-----------------------------|
Gb|--0---0--0-----0---0--0-----0--0--0--0-0-0-0-0-----------------------------|  
Db|--2---2--2-----2---2--2-----2--2--2--2-3-5-3-2-----------------------------|
Ab|--0---0--------0---0--------0--0--

Too Old To Die Young Tabs by Brother Dege

  Too Old to Die Young By Brother Dege
 And thanks to Eric Legaud, an awsome Frenchmen, for this tabs. 

Open E tuning
Capo 3rd frett

Slider/bottleneck is needed in the chorus. 
Brother Deege uses a steel one, but glass works almost in the same way for untrained ears. 
You can also use brass or ceramic, which will create a different, but still awsome sound. 

Video lesson: http://www.youtube.com/watch?v=bJBp3WSJKCI

Intro: Repeat 2 times
E |-0-------------------------------|--------------------------------|
B |-0---0---0-------0-----------0---|------0---0-------0-------------|
G#|-3---3---1---0---1---0---0---3---|-(3)--3---1---0---1---0---0---0-|
E |-0-----------3-------3---0-------|--------------3-------3---0---0-|
B |-0-------------------------------|--------------------------------|
E |-0-------------------------------|--------------------------------|

E |---------------------------------|--------------------------------|
B |-0---0---0-------0---------------|------------------0---0---0-----|
G#|-3---3---1---0---1---0---0---0---|------0---0-------1---3---1-----|
E |-------------3-------3---0---3---|-(3)--3---0---0-----------------|
B |---------------------------------|--------------3-----------------|
E |---------------------------------|--------------------------------|

Bridge: (/ -slide with slider/bottleneck)
E |-0---0---x--/3--/3---0--/3---0---|-0---0---x--/5--/5---0--/3---0--|
B |-0---0---x--/3--/3---0--/3---0---|-0---0---x--/5--/5---0--/3---0--|
G#|-x---x---x--/3--/3---0--/3---0---|-x---x---x--/5--/5---0--/3---0--|
E |-0---0---x--/3--/3---0--/3---0---|-0---0---x--/5--/5---0--/3---0--|
B |-0---0---x--/3--/3---0--/3---0---|-0---0---x--/5--/5---0--/3---0--|
E |-0---0---x--/3--/3---0--/3---0---|-0---0---x--/5--/5---0--/3---0--|

E |-0---0---x--/3--/3---0--/3---0---|-/3--3---3---0--/5---5---0---0--|
B |-0---0---x--/3--/3---0--/3---0---|-/3--3---3---0--/5---5---0---0--|
G#|-x---x---x--/3--/3---0--/3---0---|-/3--3---3---0--/5---5---0---0--|
E |-0---0---x--/3--/3---0--/3---0---|-/3--3---3---0--/5---5---0---0--|
B |-0---0---x--/3--/3---0--/3---0---|-/3--3---3---0--/5---5---0---0--|
E |-0---0---x--/3--/3---0--/3---0---|-/3--3---3---0--/5---5---0---0--|

Chorus 1/2: Play the first part 3 times, the second part 1 time. 
E |-0---0---x---x---x-|             |-/3--3---3---0--/5---5---0---0--|
B |-0---0---x---x---x-|             |-/3--3---3---0--/5---5---0---0--|
G#|-x---x---x---x---x-|             |-/3--3---3---0--/5---5---0---0--|
E |-0---0---x---x---x-|             |-/3--3---3---0--/5---5---0---0--|
B |-0---0---x---x---x-|             |-/3--3---3---0--/5---5---0---0--|
E |-0---0---x---x---x-| x3          |-/3--3---3---0--/5---5---0---0--| x1

Bridge: (/ -slide with slider/bottleneck)
E |-0---0---x--/3--/3---0--/3---0---|-0---0---x--/5--/5---0--/3---0--|
B |-0---0---x--/3--/3---0--/3---0---|-0---0---x--/5--/5---0--/3---0--|
G#|-x---x---x--/3--/3---0--/3---0---|-x---x---x--/5--/5---0--/3---0--|
E |-0---0---x--/3--/3---0--/3---0---|-0---0---x--/5--/5---0--/3---0--|
B |-0---0---x--/3--/3---0--/3---0---|-0---0---x--/5--/5---0--/3---0--|
E |-0---0---x--/3--/3---0--/3---0---|-0---0---x--/5--/5---0--/3---0--|

E |-0---0---x--/3--/3---0--/3---0---|-/3--3---3---0--/5---5---0---0--|
B |-0---0---x--/3--/3---0--/3---0---|-/3--3---3---0--/5---5---0---0--|
G#|-x---x---x--/3--/3---0--/3---0---|-/3--3---3---0--/5---5---0---0--|
E |-0---0---x--/3--/3---0--/3---0---|-/3--3---3---0--/5---5---0---0--|
B |-0---0---x--/3--/3---0--/3---0---|-/3--3---3---0--/5---5---0---0--|
E |-0---0---x--/3--/3---0--/3---0---|-/3--3---3---0--/5---5---0---0--|

Chorus 1/2: Play the first part 3 times, the second part 1 time. 
E |-0---0---x---x---x-|             |-/3--3---3---0--/5---5---0---0--|
B |-0---0---x---x---x-|             |-/3--3---3---0--/5---5---0---0--|
G#|-x---x---x---x---x-|             |-/3--3---3---0--/5---5---0---0--|
E |-0---0---x---x---x-|             |-/3--3---3---0--/5---5-

Beauty Queen chords – Bens Brother V4

  Cingham 

Capo on 3rd 

Verse 1

 Bm G D 
Eve and Adam's only child
 Bm G D 
Body that goes on for miles
 Bm G D 
Heaven only knows that real
        Bm G D 
Can be better than the fantasy

Pre Chorus

     G D A G A 
And her eyes shouldn't have blurred my vision I know that she

She

Chorus

       Bm G D A 
Was a beauty queen
        Bm G D A 
And if you are gonna cry, don't cry for me
            Bm G 
Cause from here on the ground
     D A 
The truth I have found
       Bm G D 
Is we all fall down
        Bm G D 
Yes we all fall down

Verse 2

 Bm G D 
Sidney told me something once
         Bm G D 
When he came and sat down next to me
         Bm G D 
He said "Beware of the beautiful ones
              Bm G D 
Because they never let you rest in peace."
 
Pre-chorus

     G D A G A 
But her eyes shouldn't have blurred my vision I know that she
    A 
Oh she

Chorus

       Bm G D A 
Was a beauty queen
        Bm G D A 
And if you are gonna cry, don't cry for me
            Bm G 
Cause from here on the ground
     D A 
The truth I have found
       Bm G D 
Is we all fall down
        Bm G D 
Yes we all fall down

Bridge

 F G D F G D 
Taken in, by the sweetest sin
 F G D 
Milk and honey tasting skin's
         F G D 
why she always wins

Chorus

       Bm G D A 
Was a beauty queen
        Bm G D A 
And if you are gonna cry, don't cry for me
            Bm G 
Cause from here on the ground
     D A 
The truth I have found
       Bm G D 
Is we all fall down
        Bm G D 
Yes we all fall down
        Bm G D 
Yes we all fall down
        Bm *  G *    D *
We can all fall down

Brother Oh Brother chords – Mans Zelmerlow V2

 Capo 2

 Em 
I've been there
               C 
I thought she was the one
         D G 
Until I realized that she was gone, ooooo
 Em 
Beauty can't describe
     C 
The way she looked
         D G 
I was a fool,  for love

 Em 
Please don't make the same
    C D 
Mistakes I did, don't let her win
            G 
Don't give in

            Em 
Believe me Brother oh Brother
          C G 
She will break your heart
              D 
Leave her tonight, be strong
        Em 
'Cause Brother oh Brother
             C G 
She's gonna tare you apart
                D 
Don't stay and fight

                 Em 
'Cause she will have some fun
     C G 
And then she'll run away
              D 
With someone else
            Em 
Believe me Brother oh Brother
             C G 
She's gonna break your heart
            D Em 
Listen to me, I'm setting you free

 Em C 
After me she had a millionaire
                D G 
Who bought her trips to London and Paris, ooooo
 Em C 
First I tried to win her back, but no
              D G 
What could I do,  oh she said:
 Em C 
"You are sweet but it was just a game"
                D G 
"I thought you knew", well now I do

            Em 
Believe me Brother oh Brother
          C G 
She will break your heart
              D 
Leave her tonight, be strong
        Em 
'Cause Brother oh Brother
             C G 
She's gonna tare you apart
                D 
Don't stay and fight

                 Em 
'Cause she will have some fun
     C G 
And then she'll run away
              D 
With someone else
            Em 
Believe me Brother oh Brother
             C G 
She's gonna break your heart
            D Em 
Listen to me, I'm setting you free

 Em C 
(Aaahh...)
              G D 
She wants to feel your heart's desire, ooooo
 Em C 
(Aaahh...)
             G D 
But all she is, is a heart break liar

            Fm 
Believe me Brother oh Brother
          C# G# 
She will break your heart
              D# 
Leave her tonight, be strong
        Fm 
'Cause Brother oh Brother
             C# G# 
She's gonna tare you apart
                D# 
Don't stay and fight

                 Fm 
'Cause she will have some fun
     C# G# 
And then she'll run away
              D# 
With someone else
            Fm 
Believe me Brother oh Brother
             C# G# 
She's gonna break your heart
            D# Fm 
Listen to me, I'm setting you free


(Aaahh...)
 C# 
Ooooo
   G# D# 
(Aaahh...)
             Fm 
Leave her tonight
 C# 
(Aaahh...)
 G# D# 
(Aaahh...)

Don't stay 

                 Fm 
'Cause she will have some fun
     C# G# 
And then she'll run away
              D# 
With someone else

Hey Brother Tabs by Avicii V3

 Hey Brother - Avicii

You will find my explanation video on my
youtube channel ipsaous .

****************************************************
Info : For the rythm, you can just do Down UP.
When you see G(2), you have to play
2 times DU so u play DUDU etc .... :D
****************************************************




Capo 3

Intro

   Em
e|-----------------------------------------|
B|-----------------------------------------|
G|-----------------------------------------|
D|----2---2---2---2---2---2---2---2--------|
A|-----------------------------------------|
E|--0---0---0---0---0---0---0---0----------|


Verse 1

     Em
e||---------------------------------------|
B||---------------------------------------|
G||*--------------------------------------|
D||*----2---2---2---2---2---2---2---2-----|
A||---------------------------------------|
E||---0---0---0---0---0---0---0---0-------|
     Hey              Brother,    There's an
     Hey              sister,     Know the

    C           G          D          Em
e|--------------------------------------------------------||
B|--------------------------------------------------------||
G|------0---0--------------------------------------------*||
D|----------------0---0------7--7--------2---2---2---2---*||
A|---3---3-----------------5---5--------------------------||
E|--------------3---3-----------------0---0---0---0-------||
     endless  road to    Redis   -    cover
     water's  sweet but  blood   is   thicker.


   D                    G          C          D               D
e|---------------------------------------------------------------------------|
B|---------------------------------------------------------------------------|
G|----------------------------------0---0------------------------------------|
D|---7---7---7---7-------0---0-----------------7---7---7---7---7---7---7---7-|
A|-5---5---5---5------------------3---3------5---5---5---5---5---5---5---5---|
E|---------------------3---3-------------------------------------------------|
   Ooooh       if the  sky comes  falling    down          for you    there’s

     G                C                  Em
e|--------------------------------------------0----------------------------|
B|-------------------------------------------0-----------------------------|
G|-----------------------0-----0------------0------------------------------|
D|-----0---0-------------------------------2-------------------------------|
A|--------------------3----3--------------2--------------------------------|
E|---3---3-------------------------------0---------------------------------|
   nothing in this   world I wouldn't    do


Verse 2

Em(8)              C(2)      G(2)    D(2)   Em(4)
Hey Brother, do you still believe in one another?
Em(8)              C(2)      G(2)    D(2)   Em(4)
Hey Sister, do you still believe in love I wonder?
D(4)         G(2)      C(2)    D(4)      D(4)
Ooooh if the sky comes falling down, for you,
        G(2)            C(2)             Em(4) + 1 fois B
there’s nothing in this world I wouldn't do.

Riff
E|-3-2

Chorus

Em(4)          C(2)     G(8)
   What if I'm far from home?
                                Em(4)
Oh Brother I will hear you call.
          C(2)    G(8)
What if I lose it all?

Oh Sister I will help you out!

D(4)         G(2)      C(2)    D(4)      D(4)
Ooooh if the sky comes falling down, for you,
        G(2)            C(2)             Em(4) + 1 fois B
there’s nothing in this world I wouldn't do.


Solo

e|------||-----------------------------------------------2p0-------------||
B|------||--------------0-3-5-5-3-3----------------0-3-5------3----------||
G|--0---||*-----------0-------------------0-0-0-0---------------4p2p0---*||
D|----4-||*---2-2-2------------------0h2--------------------------------*|| X 3
A|------||---------------------------------------------------------------||
E|------|

Hey Brother Tabs by Avicii V2

 -------------------------------------------------------------------------------
                             HEY BROTHER - Avicii
-------------------------------------------------------------------------------
: Luis Del Re


Tuning: Standard (CAPO 3)

e|-----------------------------------------------------------------------------|
B|-----------------------------------------------------------------------------|
G|-0---------0--4--2--0-----------------0--------------------------------------| X2
D|----0--2---------------2--0--2--0--2-----------------------------------------|
A|-----------------------------------------------------------------------------|
E|-----------------------------------------------------------------------------|

e|-----------------------------------------------------------------------------|
B|------------0----------------------------------------------------------------|
G|--2--0--2------2--0------2----------2----------------------------------------|
D|----------------------2----------2-------------------------------------------|
A|-----------------------------------------------------------------------------|
E|-----------------------------------------------------------------------------|

e|-----------------------------------------------------------------------------|
B|-----------------------------------------------------------------------------|
G|------4-4-4---2--0-----------------------------------------------------------|
D|--2-------------------2---2--0--2--------------------------------------------|
A|-----------------------------------------------------------------------------|
E|-----------------------------------------------------------------------------|

Famous For Killing Each Other Chords – Fex Rossi

 Song: Famous for killing each other
Author: Kevin Costner and Modern West 
As performed by: Fex Rossi  

(CAUTION: That´s a very simple song, almost only 2 chords, so
you can play it in a "crescendo". Start Verse 1 with "arpegios",
then verse 2 only bass, and then the hole chords till the end, i.ex.)       

 Am G 
'round here everybody knows, when you walk into a room
 Am G 
best be careful where you sit, it is a side you choose
             Am G G 
That's the way it is,   'round here

 Am G 
'round here everybody sees,  sees it if you smile too long
 Am G  
Don't nobody move too quick, nobody looks beyond
       Am G 
his brother,.....'round here

Chorus:
 G Am G Am 
Hatfield and Mcoy,       can't say one without the other
 G Am G Am 
Hatfield and Mcoy,       famous for killing each other


  Am G 
Lately everybody has,   a reason for revenge
   Am G 
those who are now enemies,    once they used to be good friends
             Am G 
That's the way it is,   'round here

Chorus:
 G Am G Am 
Hatfield and Mcoy,       can't say one without the other
 G Am G Am 
Hatfield and Mcoy,       famous for killing each other

Bridge:
 Am F G Am 
And how it all began,     can't nobody say
 Am F G Am 
But when you make a stand,    you never back away


 Am G 
There's some who want it all to end,   but strong are family ties
 Am G 
Can't tell noone how they feel,  but you can see it in their eyes
             Am G 
That's the way it is,  that's just the way it is....


Chorus:
 G Am G Am 
Hatfield and Mcoy,       can't say one without the other
 G Am G Am 
Hatfield and Mcoy,       famous for killing each other


Bridge:
 Am F G Am 
And how it all began,     can't nobody say
 Am F G Am 
But when you make a stand,    you never back away
 G Am 
you never back away...


http://www.fexrossi.com

Come A Little Closer Chords – Cage The Elephant V2

 I just converted the chords from version one(Made By MrMusicManSaamto) to more playable 
ones. It is still in the same key as the song. :) this is my first post

Capo 4

Intro:  Am Em Dm Am 


Verse 1:

 Am Em 
Time shakes, found you at the water
                      Dm Am 
At first you were my father, now I love you like a brother
 Am Em 
Earthquakes shake the dust behind you
                       Dm 
This weather toss will blind you
                       Am 
Still not know, I seem blind

Chorus:

 F Dm Am 
Come a little closer than you seem
 Am 
Come on, come on, come on
 F Dm Am 
Things aren't always what they seem to be
 Am 
Come on, come on, come on
 F Dm Am 
Do you understand the things that you would see here
 Am 
Come on, come on, come on
 F Dm Am 
Do you understand the things that you've been dreaming
 F Dm Am 
Come a little closer than you seem



Verse 2:

 Am Em 
Heartbreaks, that have me rest upon your shoulder
                          Dm 
Will you buy my...(?)
                          Am 
So now I know I found you there
 Am Em 
Uuuh, wanna see if you can change it,
 Dm Am 
Change it, Still not know, I seem good

Chorus:

 F Dm Am 
Come a little closer than you seem
 Am 
Come on, come on, come on
 F Dm Am 
Things aren't always what they seem to be
 F Dm Am 
Do you understand the things that you would see here
 Am 
Come on, come on, come on
 F Dm Am 
Do you understand the things that you've been dreaming
 F Dm Am 
Come a little closer than you seem
 F Dm Am 
Come a little closer than you seem

I Cant figure out the bridge conversions, if i do, ill post a new tab

Chorus:
 F Dm Am 
Come a little closer than you seem
 Am 
Come on, come on, come on
 F Dm Am 
Come a little closer than you seem
 F Dm Am 
Cme a little closer than you seem
 F Dm Am 
Come a little closer than you seem