Tag: bryan

You Belong To Me chords – Bryan Adams Vsion 3

 Cracking, simple song but very nice to play.

Capo 2

Intro [G]

 G 
I'll take the night train - I'll take an airplane
     Em D G 
Cuz you belong to me

 G 
I just wanna to say - ain't gonna let you get away
     Em D G 
Cuz you belong to me

              Em D G C 
I only wanna hoooold you
              Em D G C 
I just wanna hoooold you
              Em D G C G 
C'mon let me hoooold you tonight

 G 
You say ya ain't leavin', I can't help dreamin'
 Em D G 
You belong to me

 G 
I'll take the high way, I'll take the low way
     Em D G 
Cuz you belong to me

              Em D G C 
I only wanna hoooold you
              Em D G C 
I just wanna hoooold you
              Em D G C G 
C'mon let me hoooold you tonight

Solo [  Em D G C Em D G C Em D G C G  ]

 G 
I'm not drinkin', gets me thinkin'
 Em D G 
You belong to me

 G 
While you're out there, remember I'm right here
     Em D G 
And you belong to me

              Em D G C 
I only wanna hoooold you
              Em D G C 
I just wanna hoooold you
              Em D G C 
C'mon let me hoooold you
              Em D G C G 
C'mon let me hoooold you
   G 
Tonight

Let The Sound Of Heaven chords – Bryan And Katie Torwalt

 Verse 1:
 Em G Am7 C/G 
Let the sound of heaven ring out
 Em G Am7 C/G 
Join the songs of angels sung loud
 Em G Am7 C/G  
Let all heaven and earth praise 
      Em G Am7 C/G 
Your name Lord Jesus

Verse 2:
 Em G Am7 C/G 
Let the signs and wonders break out,
 Em G Am7 C/G 
Let revival fire burn bright
 Em G Am7 C/G  
Let all heaven and earth praise
      Em G Am7 C/G 
Your name Lord Jesus

Chorus:
             G Am7 
        Let praise come from my lips all my days
              G/B C 
        Your love overtake me and flow through my veins
             G Am7 
        Let Heaven on earth be reality here
             G/B C 
        Let Your Kingdom come and Your glory dwell here

Bridge:
 D C G/B Am7 
All my love and affection belongs to You (3x)

Kick The Dust Up intro Tabs – Luke Bryan

 -------------------------------------------------------------------------------
                             SONG NAME - Band Name
-------------------------------------------------------------------------------
: alzaik
 n/a
Q=quarter, E=eighth, H=half note

Tuning:Standard, 4/4 time, Q = 160

     Q       Q     E     E     Q        Q   Q    Q     Q
e|----------------------------------|------------------7---------------------|
B|-----------9-----7----------------|-------7----9---------------------------|
G|-----------------------8-----6----|---8------------------------------------|
D|---6------------------------------|----------------------------------------|
A|----------------------------------|----------------------------------------|
E|----------------------------------|----------------------------------------|

     Q       Q     E     E     Q        Q   Q    H     
e|----------------------------------|----------------------------------------|
B|-----------9-----7----------------|-------7----9---------------------------|
G|-----------------------8-----6----|---8------------------------------------|
D|---6------------------------------|----------------------------------------|
A|----------------------------------|----------------------------------------|
E|----------------------------------|----------------------------------------|


Repeats until around 0:35

************************************

| /   slide up
| \   slide down
| h   hammer-on
| p   pull-off
| ~   vibrato
| +   harmonic
| x   Mute note
| b   Bend
| pb  Pre-bend
| br  Bend release
| pbr Pre-bend release
| brb Bend release bend

************************************

Loop De Li chords – Bryan Ferry

 Bryan Ferry - Loop De Li

 Avonmore [2014]

You might as well transpose this -4 and put a capo on the 4th fret for even simpler chord formations.



 G#m E 
 You wake up where are you
 G#m E 
 What's on your mind?
 G#m E 
 Confusion can't face it
 G#m E 
 You close your eyes
 G#m E 
 There's no one to turn to
 G#m E 
 No where to hide
 G#m E 
 Deep river cool water
 G#m E 
 Your love has died


  C#m F# B E 
Well I know and you know, we’re killing time
            C#m F# B E 
We’re on an Up down see saw….. Loop de li


 G#m E G#m E 
 I saw you cry
 G#m E G#m E 
 Sweet hatred taste bitter... Loop de li
 G#m E G#m E 
 Ambition no telling what’s on your mind
 G#m E 
 Hatred - bitter
 G#m E 
 Loop de li


  C#m F# B E 
Well I know and you know, we’re killing time
            C#m F# B E 
We’re on an Up down see saw….. Loop de li


 G#m E G#m E 
 You’re watching and waiting You walk on by
 G#m E 
 Delusion you’re drowning 
 G#m E 
 You wonder why
 G#m E G#m E 
 Ambition no telling What’s on your mind?
 G#m E G#m E 
Sweet hatred tastes bitter... Loop de li

Dairybeat – Heaven – Bryan Adams – Cover chords

 DAIRYBEAT: HEAVEN (Bryan Adams) 70 – 8/4

|./.    |: Repeat the previous Chord and/or Measure of 4-Counts.


Intro: | G Em   | D     | C Em   | F D   |

Verse 1:

 G Em                 | D                        | Am Em 
  OH, THINKIN' ABOUT OUR YOUNGER YEARS, THERE WAS ONLY YOU AND ME,

       | F D    |
WE WERE YOUNG AND WILD AND FREE.

 G Em                     | D                       | Am Em 
  NOW NOTHING CAN TAKE YOU A-WAY FROM ME, WE'VE BEEN DOWN THAT ROAD BE-FORE, 

      | F C             | D               |./.
THAT'S OVER NOW,  YOU KEEP ME COMING BACK FOR MORE.

Chorus:

      | C D Em                | G C 
‘CAUSE BABY YOU'RE ALL THAT I WANT, WHEN YOU'RE LYING HERE IN MY ARMS,

   | C D Em              | D 
I'M FINDING IT HARD TO BE-LIEVE, WE'RE IN HEAVEN.

   | C D Em          | G C 
AND LOVE IS ALL THAT I NEED, AND I FOUND IT THERE IN YOUR HEART,

  | C D Em            | D      |
IT ISN'T TOO HARD TO SEE, WE'RE IN HEAVEN.

Verse 2:

 G Em                    | D                      | Am         
  OH, ONCE IN YOUR LIFE YOU FIND SOMEONE, WHO WILL TURN YOUR WORLD

   Em              | F D    |
A-ROUND, PICK YOU UP WHEN YOU'RE FEELING DOWN.

 G Em                          | D                     | Am 
  NOW NOTHING CAN CHANGE WHAT YOU MEAN TO ME, THERE'S A LOT THAT I COULD

 Em            | F C         | D                   |./.
SAY, BUT JUST HOLD ME NOW,  AND OUR LOVE WILL LIGHT THE WAY.

Chorus:

      | C D Em                | G C 
‘CAUSE BABY YOU'RE ALL THAT I WANT, WHEN YOU'RE LYING HERE IN MY ARMS,

   | C D Em              | D 
I'M FINDING IT HARD TO BE-LIEVE, WE'RE IN HEAVEN.

   | C D Em          | G C 
AND LOVE IS ALL THAT I NEED, AND I FOUND IT THERE IN YOUR HEART,

  | C D Em            | D       |
IT ISN'T TOO HARD TO SEE, WE'RE IN HEAVEN.

Bridge:

 Am                          | Em C               | G 
   I'VE BEEN WAITING FOR SO LONG, FOR SOMETHING TO AR-RIVE,

                  | D     | Am                           | Em  
FOR LOVE TO COME A-LONG.    NOW OUR DREAMS ARE COMING TRUE,

             C                  | G              | D                 | Dsus4 D   
THROUGH THE GOOD TIMES AND THE BAD, I WILL BE STANDING THERE BY YOU.

Chorus:

      | C D Em                | G C 
‘CAUSE BABY YOU'RE ALL THAT I WANT, WHEN YOU'RE LYING HERE IN MY ARMS,

   | C D Em              | D 
I'M FINDING IT HARD TO BE-LIEVE, WE'RE IN HEAVEN.

   | C D Em          | G C 
AND LOVE IS ALL THAT I NEED, AND I FOUND IT THERE IN YOUR HEART,

  | C D Em            | D       |
IT ISN'T TOO HARD TO SEE, WE'RE IN HEAVEN.

Outro:
                                                /  / (Breaks)
 C 

Nothing Ive Ever Known Tabs – Bryan Adams V3

 E||-----------------2--4--|--5--------------5----|--4--------------4----|--2--------------0-----|
B||-----------------------|------------2---------|------------2---------|------------2------3---|
G||-----------------------|-------2--------------|-------2--------------|-------2---------------|
D||-----------------------|----------------------|--2-------------------|--0--------------------|
A||-----------------------|----------------------|----------------------|-----------------------|
E||-----------------------|--2-------------------|----------------------|-----------------------|


  A                          Bm                     Bm/A                  E
--0-----------------------|----------------------|---------------------|----------------------|
--------------------0--2--|--3--------------3----|--3------------------|--0-------------------|
------------2----2--------|------------4---------|------------4--------|-----------------1----|
-------2------------------|-------4--------------|-------4-------------|------------2---------|
--0-----------------------|--2-------------------|--0------------------|-------2--------------|
--------------------------|----------------------|---------------------|--0-------------------|


  E                                       A                      Bm
-------------------|-------------------|----------------------|----------------------|
-------------------|-------------------|--2--------------2----|--3--------------3----|
--1----------------|-------------------|------------2---------|------------4---------|
-------------------|-------------------|-------2--------------|-------4--------------|
-------------------|-------------------|--0-------------------|--2-------------------|
--0----------------|-------------------|----------------------|----------------------|


  A                      A                        Bm                     Bm/A
--0-------------------|------------------------|----------------------|---------------------|
-----------------2----|------------------0--2--|--3--------------3----|--3------------------|
------------2---------|--2------------2--------|------------4---------|------------4--------|
-------2--------------|------------------------|-------4--------------|-------4-------------|
--0-------------------|--0---------------------|--2-------------------|--0------------------|
----------------------|------------------------|----------------------|---------------------|


  E                      E                   D                      E
----------------------|-------------------|----------------------|----------------------0-----|
--0-------------------|-------------------|----------------0-----|--0----------------0-----3--|
-----------------1----|--1----------------|--2----------2--------|----------------------------|
------------2---------|-------------------|-------0--------------|------------2---------------|
-------2--------------|-------------------|--0-------------------|-------2--------------------|
--0-------------------|--0----------------|----------------------|--0-------------------------|


  C#m                    A                          Bm                        Bm
----------------------|--------------------------|-------------------------|---------------------|
--5--------------5----|--------------------0--2--|--3--------------3p0-----|--3--------------5p3-|
------------6---------|--2---------2----2--------|------------4------------|------------4--------|
-------6--------------|-------2------------------|-------4-----------------|-------4-------------|
--4-------------------|--0-----------------------|--2----------------------|--2------------------|
----------------------|--------------------------|-------------------------|---------------------|


  A                                                                 E
--0-------------------|-------------------|----------------------|------------------0-----|
-----------------2----|--

Sound The Bugle intro Tabs by Bryan Adams V3

 No capo
Standard  tuning

  E |--3--2--7--0-------------------------------------|
  B |------------------3--5--8--3--1--5--0------------|
  G |-------------------------------------------2-----|
  A |-------------------------------------------------|
  E |-------------------------------------------------|

  E |--3--2--7--0-------------------------------------|
  B |------------------3--5--8--3--1--0--3------------|
  G |-------------------------------------------2-----|
  A |-------------------------------------------------|
  E |-------------------------------------------------|

I See Heaven chords – Bryan And Katie Torwalt V3

 vs1
 F Bb F/A Bb F Bb F/A Bb 
I see heaven, invading this place, I see angels, Praising Your Holy Name
         F/A Bb F/A Bb 
And I sing praises, I sing praises, I give You honor, Worthy Jesus
vs2
 F Bb F/A Bb 
I see Glory, Falling in this place
 F Bb F/A Bb 
I see hope restored, healing of all disease
        F/A Bb F/A Bb 
And I sing praises, I sing praises, I give You honor, Worthy Jesus
Chorus
 F 
We give You Praise, and all of the Honor
 Bb 
You are our God, the one we live for
 F/A Bb 
We give You Praise, and all of the Glory God
Bridge
 Gm7 F/A Bb F C/E Gm7 
Let Your Presence fill this place, Let heaven come
 Gm7 F/A Bb F C/E Gm7 
Let Your angels be released, Let Heaven come
 Gm7 F/A Bb F C/E Gm7 
We will worship at Your feet, Let Heaven come
 Gm7 F/A Bb F C/E Gm7 
Face to face we want to meet, Let Heaven come

Glorious chords – Bryan And Katie Torwalt V2

 Glorious (Bryan and Katie Torwalt)      ©Bryan and Katie Torwalt 2011

Intro/Wohhʼs...  C#m A E  

Verse 1 
 E C#m A  
Hope fills my soul, and the love that youʼve shown
             C#m B  
Brings refreshing like the rain
 E C#m A  
Peace floods my heart, Iʼve known nothing apart
              C#m B  
Apart from Your goodness God

Chorus 
            C#m B/D# E A C#m B/D# 
You are Glorious,       You are Holy, Holy 
 C#m B/D# E A C#m B/D# 
The heavenʼs shout, You are Worthy, Worthy
 C#m B/D# E A C#m B/D#  
My soul cries out,      You are Holy, Holy
 C#m B/D# E A C#m B/D#  
The Nations will shout, You are Worthy, Worthy

Verse 2
       E C#m A 
Your Love frees my soul, and fear has no hold 
             C#m B 
For You have broken the chains 
 E C#m A 
Now Joy fills my life, Your Spirit Your Light
            C#m B  
Iʼm undone by the Kindness of Christ

Bridge 
 A C#m E B 
At the sound of our praise, the heavens will shake and the earth will move

Dirt Road Diary chords – Luke Bryan V3

 Luke Bryan- Dirt Road Diary

Standard Tuning- Capo 1





Intro-  Em7 | D | C/D 



Verse 1

 G D C/D 
Me and daddy'd ride around all day shooting doves off a line in a Chevrolet.

 G D C/D 
Old lab would jump out the back and fetch them up.

 G D C/D  
We'd drive for miles and miles and never once hit blacktop or change the dial.
 G D C/D 
One little country station was all there was.




 Am Bm C 
Checking gates, fixing fence rows- that's how my story goes.




Chorus

 Em7 D C/D D 
If you want to know the real me, just turn the page in my dirt road diary.

 Em7 D C/D D 
It's right there for you to see, every kiss, every beer, every cotton field memory.

 G D C/D D 
Tan legs and some Dixie Land delight, ridin' round, windows down on a summer night.

 Em7 D C/D 
I was there, and that was me. It's right here in my dirt road diary.



 Em7 | D | C/D 


Verse 2

 G D C/D 
I remember when I turned sixteen I got a license and some gasoline.

 G D C/D 
Ain't a curve or a straight away we didn't fly down.

 G D C/D  
If wasn't the boys it was me and her by fire in a field or down on the river.

 G D C/D 
Every inch of that county was sacred ground.





 Am Bm 
I wish I knew where that old truck was.

 C 
If it could talk it could tell on us.




Chorus 

 Em7 D C/D D 
If you want to know the real me, just turn the page in my dirt road diary.

 Em7 D C/D D 
It's right there for you to see, every kiss, every beer, every cotton field memory.

 G D C/D D 
Tan legs and some Dixie Land delight, ridin' round, windows down on a summer night.

 Em7 D C/D 
I was there, and that was me. It's right here in my dirt road diary.




 Em7 D C/D 
It ain't a book underneath my bed;

 Em7 D C/D 
Just a dusty memory lane burned in my head.



 Em7 | D | C/D  x2


 G D C/D                            
Tan legs and some Dixie Land delight, ridin' round, windows down feeling right

 Em7 D C/D D 
I was there, that was me. It's right here in my dirt road diary.

 Em7 D C/D                     
Just ride around my little town and you'll see how I wrote my dirt road diary.



Outro-   Em7 | D | C/D  x2

Christmas Time chords – Bryan Adams V4

 
Bryan Adams - Christmas Time


Verse:
           C G Am Am7/G 
We waited all through the year
         Dm C G 
For the day to appear
      C E7 Am    ( Am7 )      G 
When we could be together in harmony
     C G Am Am7/G 
You know the time will come
          Dm C G 
Peace on earth for everyone
     C E7 Am    ( Am7 )
And we can live forever
      Dm 
In a world where we are free
        F G 
Let it shine for you and me


Chorus:
         C 
There's something about Christmas time
 F Fm 
Something about Christmas time
      C Am G 
That makes you wish it was Christmas everyday
    C 
To see the joy in the children's eyes
 F Fm 
The way that the old folks smile
 C D G C 
Says that Christmas will never go away


Verse:
We're all as one tonight
Makes no difference if you're black or white
Cause we can sing together in harmony
I know it's not too late
The world would be a better place
If we can keep the spirit
More than one day in the year
Send a message loud and clear


Chorus


Bridge:
          G F C 
It's the time of year when everyone's together
       G F C 
We'll celebrate here on Christmas day
          Am 
When the ones you love are there
         D7 G F Em D7 
You can feel the magic in the air
You know it's everywhere





 C  (ring out)
There's something about Christmas time
 C 
There's something about Christmas time


Chorus: x2
         D 
There's something about Christmas time
 G 
Something about Christmas time
      D Bm A 
That makes you wish it was Christmas everyday
    D 
To see the joy in the children's eyes
 G Gm 
The way that the old folks smile
 D E A D 
Says that Christmas will never go away




        D E A C 
Please tell me Christmas will never go away