Tag: cale

Hold Fast chords – Zachary Cale

 Zachary Cale - Hold Fast

I think it in an open tuning, this is in standard

Capo 2nd 

Intro/riff
    G A Bm G 
e|-----0-2----0---------2-----------------|
B|-3h5---3-0--3-2-h3-5--3--3--5-3--2-3-0--|
G|-0-----0----2---------4-------0------0--|
D|-0-----0----2---------4-------0------0--|
A|-x-----x----0---------2-------x------2--|
E|-3-----3----------------------3------3--|


 G A Bm G  
If I let you stan inside of me
 G A Bm G  
could you learn to walk, could you learn to breathe?
 G A Bm G  
Or would you shield your eyes from the ugly things 
 G A Bm G  
That bare their teeth and beat their wings?

 A G A G 
Hold fast to the ray, that slips past the falling rain. 
 A G A G 
Keep your dream ’neath your hat, and the wind on your back.
 A G A G 
Day breaks, cock crows, earth quakes, night glows,
 A G A G 
flowers wilt, love dies, snow melts, sun shines. Oh my, oh my.

 Bm G  3x
 A 

Riff


Well the past is still the past you can visit anytime.
Nothing’s really changed except a few road signs.
Well it’s quiet ’round here and we like it that way. So don’t go sniffing ’round a newly dug grave.

Hold fast to the ray, that slips past the falling rain. 
Keep your dream ’neath your hat, and the wind on your back.
Day breaks, cock crows, earth quakes, night glows,
flowers wilt, love dies, snow melts, sun shines. Oh my, oh my.

Hanky Panky Nohow chords – John Cale

 -----------------------------------------------------------------------------
                         HANKY PANKY NOHOW - John Cale
-----------------------------------------------------------------------------

 John Cale
Song: Hanky Panky Nohow
 Paris 1919 (1973)

: crimson-dync
Tuning: Standard (quarter-tone up)


--INTRO 1--
 C/G Am   (x2)

--VERSE 1--
         C/G Am 
If the sacheting of gentlemen
           C/G Am 
Gives you grievance now and then
        C/G Am F Dm7 
What’s needed are some memories of planing lakes
        F G7 
Those planing lakes will surely calm you down

--INTRO 2--
 C/G Am   (x2)

--VERSE 2--
 C/G Am 
   Nothing frightens me more
        C/G Am 
Than religion at my door
    C/G Am 
I never answer panic knocking
  Dm7 F G G 
Falling down the stairs upon the law
     F F 
What law?

--BRIDGE 1--
           Fadd9 C 
There'’s a law for everything
          Fadd9 C 
And for elephants that sing to keep
     Fadd9 C G G 
The cows that agriculture won’t allow

--CHORUS 1--
       F F 
Hanky panky nohow
       C C 
Hanky panky nohow
       F F 
Hanky panky nohow oh

--INTRO 3--
 C/G Am   (x3)

--BRIDGE 2--
           Fadd9 C 
There'’s a pain for everything
          Fadd9 C 
And for elephants that sing to keep
     Fadd9 C G G 
The cows that agriculture won’t allow

--CHORUS 2--
       F F 
Hanky panky nohow
       C C 
Hanky panky nohow
       F F 
Hanky panky nohow oh
 C C 

--INTRO 4--
 C/G Am   (x6)


------------------------------

 C       x32010
 C/G     332010
 Dm7     xx0211
 Am      x02210
 F       133211
 Fadd9   1x3213
 G       320003
 G7      320001


Buenos Aires. January, 2014.

soldync.ar

The Endless Plain Of Fortune chords – John Cale

 -----------------------------------------------------------------------------
                 THE ENDLESS PLAIN OF FORTUNE - John Cale
-----------------------------------------------------------------------------

 John Cale
Song: The Endless Plain of Fortune
 Paris 1919 (1973)

: crimson-dync
Tuning: Standard


--INTRO--
 Am  /  /   Am7  (x4)


--VERSE 1--
      Am Am7 Am Am7 
Old taylor said
 F C G 
 Old taylor meant to cry -- oh my

Field marshall meant
 Field marshall went away again


--CHORUS 1--
 F C 
 Watch out below; the tides
 F C 
 Lean heavily like wine
 F C G Am 
 We are all innocent in spite of you and me

    Am 
G|-2-------|
D|---2-----|  (x4)
A|-----3-0-|
E|---------|


--VERSE 2--
       Am Am7 Am Am7 
Then martha went
 F C G 
 Yes martha went away again

Down in transvaal
 Where crocodiles and men fight on


--CHORUS 2--
 F C 
 They would have played all night
 F C 
 Even with loaded dice
 F C G Am 
 It's gold that eats the heart away and leaves the bones to dry

    Am 
G|-2-------|
D|---2-----|  (x2)
A|-----3-0-|
E|---------|


--INTERLUDE--
 E D C Bm Am G F Em Dm C G 


--VERSE 3--
   Am Am7 Am Am7 
Segovia watched
 F C G 
 Gendarmerie and all that's all

The radio man
 Amanda did you choose your tune


--CHORUS 3--
 F C 
 She walked away in time
 F C 
 She walked a crooked line
 F C G Am 
 So gracefully she turned her head and smiled -- away

    Am 
G|-2-------|
D|---2-----| (x12)
A|-----3-0-|
E|---------|



Buenos Aires. January, 2014.

soldync.ar

Closer To You chords – Jj Cale

 BY: YEN D.



STANDARD TUNING
INTRO:  Dm - C - C - Dm 

STRUMMING PATTERN : DOWNWARDS : Down-Dead string-Down

GUITAR I:

e||---------------------------------------|
B||---------------------------------------|
G||---5-7--5--77~~------5-7----5-7----5-7-|
D||-7-----------------7------7------7-----|
A||---------------------------------------|
E||---------------------------------------|

e|---------------------------------------------||
B|---------------------------------------------||
G|----5-7--7-5-7-5-7~-p5--5----5-7---5h7-5h7~--||
D|--7-----7--------------7---7-----------------||
A|---------------------------------------------||
E|---------------------------------------------||

GUITAR II:

e||--------------------------------||
B||--------------------------------||
G||---7-x-7--5-x-5---5-x-5--7-x-7--||
D||---7-x-7--5-x-5---5-x-5--7-x-7--||==(2x)
A||---5-5-5--3-3-3---3-3-3--5-5-5--||
E||--------------------------------||


 Dm C   
Wish I was a stocking clanging to your thigh
C                           Dm                        (extra strum here)
Everytime you'd move around I'd view you walking by
 Dm C 
Wish I was your underwear hanging around your waist
 C Dm 
Everytime you'd shake that thing I'd get a little taste


 Dm C C Dm 
Closer, closer, closer to you
 Dm C C Dm 
Closer, got to get closer, closer to you


 Dm C  
If I was a pair of boots I wouldn't have to beg
 C Dm       
I'd be satisfied just being around your leg
 Dm C 
When I am dreaming it takes so many trips
 C Dm 
I'd pretend that I'm a stick to decorate your lips



 Dm C C Dm 
Closer, closer, closer to you
 Dm C C Dm 
Closer, got to get closer, closer to you


 Dm C 
If I am a necklace hanging down your front
 C Dm 
When you feel the time was right I'd notice what you want
 Dm C   
Wish I was a silk shirt draped around your back
 C Dm 
Right next to your skin tryin' to make contact




 Dm C C Dm 
Closer, closer, closer to you

 Dm C C Dm 
Closer, closer, closer to you


 Dm - C - C -Dm(2x)


 Dm C   
If I had my wishes, If I had my way
 C Dm 
I'd be all the same to you, each and everyday



 Dm C C Dm 
Closer, closer, closer to you

 Dm C C Dm 
Closer, closer, closer to you