Tag: change

Change Of Heart chords – Tops

 Change of Heart by Tops 

Listen to the song for the strumming pattern. Note the last chorus is different from the previous two. 


Intro:   A G#m B A   (x2) 


Verse: 

 A G#m  
All a sudden change of heart

            B A 
You don't see what you used to see

 A G#m 
A girl you've known forever now

 B A  
Is suddenly your fantasy



 A G#m 
Used to be another way

           B A    
You could talk to her about anything, it's bad

             G#m  
You don't know how she feels

     B A  
So bad, Change of heart


Chorus: 

 C#m B A  
Wasting, wasting a chance you're chasing

 G#m F#m  
Why you so afraid to face it?

 C#m A B  
Acting like the girl's a ghost

 C#m B A  
Wishing, what you want, apparition?

 G#m F#m C#m  
Cloudy is your current condition

               A B             
Change of heart,  Change of heart 



Bridge:   A G#m B A   (x2) 



Verse: 

 A G#m  
Wonder why you shy away

     B A 
She wants to be your friend

                  A  
She thinks you're mad

           G#m B  
Girl you know is turning back

              A  
Change of heart



Chorus: 

 C#m B A  
Wasting, wasting a chance you're chasing

 G#m F#m  
Why you so afraid to face it?

 C#m A B  
Acting like the girl's a ghost

 C#m B A  
Wishing, what you want, apparition?

 G#m F#m C#m  
Cloudy is your current condition

               A B A      
Change of heart,  Change of heart 

   B  
Change of heart 


Breakdown:  C#m C#m A B  


(KEYBOARD SOLO): Guitar jumps back on last two chords:  C#m  B 


Chorus: 

 A G#m F#m  
Wasting, wasting a chance you're chasing

             B C#m   
Why you so afraid to face it?

             B A C#m B   
Why you so afraid to face it?

 A G#m F#m  
Wasting, wasting a chance you're chasing

             B C#m   
Why you so afraid to face it?

             G#m A       
Why you so afraid to face it?

 C#m B             
Why you so afraid? 



Outro:   A G#m B A   (x4)

Loose Change Tabs – Royal Blood

 Tuning:DADGBe

This song is probably actually played in standard tuning, however it is possible to play in drop D which I 
find convenient because a few other Royal Blood songs are in drop D and it means you don't have to change
tuning if you learn to play it the song in drop D.
If you'd prefer to learn it in standard tuning I'd recommend checking out the bass tab: 
(http://tabs.ultimate-guitar.com/r/royal_blood/loose_change_btab.htm)
and playing that on a 6-string.


Intro 

e|------------------------------------------------------------------|
B|------------------------------------------------------------------|
G|------------------------------------------------------------------|
D|--------------------11---9----------------------------------------|
A|----------------7-9--------11-7--9---9--------12-12-12-12-11-11---|
D|-11--11------11-------------------------------------------------7-|

e|------------------------------------------------------------------|
B|------------------------------------------------------------------|
G|------------------------------------------------------------------|
D|--------------------11---9----------------------------------------|
A|----------------7-9--------11-7--9---9--------12-12-12-12-11-11---|
D|-11--11------11-------------------------------------------------7-|

First Verse

e|------------------------------------------------------------------|
B|------------------------------------------------------------------|
G|------------------------------------------------------------------|
D|--------------------11---9----------------------------------------|
A|----------------7-9--------11-7--9---9--------12-12-12-12-11-11---|
D|-11--11------11-------------------------------------------------7-|

e|------------------------------------------------------------------|
B|------------------------------------------------------------------|
G|------------------------------------------------------------------|
D|--------------------11---9----------------------------------------|
A|----------------7-9--------11-7--9---9--------12-12-12-12-11-11---|
D|-11--11------11-------------------------------------------------7-|

e|------------------------------------------------------------------|
B|------------------------------------------------------------------|
G|------------------------------------------------------------------|
D|--------------------11---9----------------------------------------|
A|----------------7-9--------11-7--9---9--------12-12-12-12-11-11---|
D|-11--11------11-------------------------------------------------7-|

e|------------------------------------------------------------------|
B|------------------------------------------------------------------|
G|------------------------------------------------------------------|
D|--------------------11---9----------------------------------------|
A|----------------7-9--------11-7--9---9--------12-12-12-12-11-11---|
D|-11--11------11-------------------------------------------------7-|

e|-----------------------------------------|
B|-----------------------------------------|
G|-----------------------------------------|
D|-----------------------------------------|
A|-12----------------14--------------------|
D|-----------------------------------------|


e|------------------------------------------------------------------|
B|------------------------------------------------------------------|
G|------------------------------------------------------------------|
D|--------------------11---9----------------------------------------|
A|----------------7-9--------11-7--9---9--------12-12-12-12-11-11---|
D|-11--11------11-------------------------------------------------7-|

e|-----------------------------------------------------------|
B|-----------------------------------------------------------|
G|-----------------------------------------------------------|
D|--------------------11--14-13------------------------------|
A|----------------7-9------

Dont Change Gone chords – Jason Aldean

 Standard  A C#m B  (But I'll Be tabbing the Capo version. Very easy strum pattern.)

Capo 4  F Am G  

Intro:  F Am F Am 
[Verse:]
 F 
I can keep on changing the song
Keep on changing stations
 Am 
Til I finally land on one
I don't mind that they keep playing
 F 
I'd take a different road through town
I find another way around
 G 
Change it up, really shake it up
Yeah, I'm trying

[Chorus:]
         Am G F Am 
But it don't change gone, won't bring her back
             F G 
She's moved on, and I'm stuck with that
 Am G F Am 
I could change whatever I want
        Am G F    
But it don't change gone

 F Am 

[Verse 2:]
 F 
I can keep on hanging around
But I don't see me staying
 Am 
Strike a match and burn it down
Walk out and leave it laying
 F 
Don't think about a thing just drive
Far enough til I find 
 G 
A change of scene
A new routine, I'd try anything

[Chorus:]
         Am G F Am 
But it don't change gone, won't bring her back
             F G 
She's moved on, and I'm stuck with that
 Am G F Am 
I could change whatever I want
        Am G          
But it don't change 

[Outro:]
 F G Am G F 
Tailights fading, not ones breaking
 F            Solo:  Am F Am  
She's gone
      Am G F Am 
Yeah, I could change whatever I want
        Am G F 
But it don't change   gone
 Am F Am F  (single strum)
  No it don't change gone

Nothing Can Change This Love chords – Sam Cooke V2

 A C#7 
If I go a million miles away
 D B7 
I'd write a letter, each and every day
               A F#7 
'Cause honey, nothing,
 F#7 B7 E7 A D 
Nothing can ever change this love I have for you


 A C#7 
Make me weep and you can make me cry
 D B7 
See me comin' and you can pass me by
            A 
But honey, nothing
 F#7 B7 E7 A D        
Nothing can ever change this love I have for you


 A D E7 A F#m 
you're the apple of my eye, you're cherry pie
      E7 A 
and oh yeah, you're cake and ice cream
 C#7 A F#m 
You're sugar and spice and everything nice
 B7 E7 D C# Bm7 
You re the girl of my my my my dreams


 A C#7 
But if you wanted to leave me and roam
 D B7 
When you get back, I'd just say "Welcome Home"
              A F#7 
'cause honey nothing, nothing
     B7 E7 A D A 
can ever change this love I have for you 

Wouldnt Change A Thing chords – Matthew West

 "Wouldn't Change A Thing" - Matthew West 
 J.R. Bradford 

Standard Tuning / No Capo 

FINGER PICKING PATTERN: 
e|------------------|
B|--------2---------|
G|-------------0----|
D|-----------0------|
A|-----2------------|
E|--3---------------|

INTRO:  G Em7  

VERSE: 
 G Em7 D      
  Had a picture in my head of how I thought it all would go 
 G Em7 D  
  But look who showed up instead, turns out you never know 

PRECHORUS: 
 Am Cmaj7 D  
  Love will steal you by surprise, and take your heart just like a thief    
 Am Cmaj7 D  
  Love can bring a stubborn man down to one knee 

CHORUS: 
     G Em7 Am D     
And I wouldn't change a thing, it's perfectly imperfect, so crazy, but it's worth it 
     G Em7  
And I am wrapped around you like this ring, 
     Am D Cmaj7 G Em7 
And something tells me even if I could, I wouldn't change a thing 

VERSE: 
 G Em7 D    
  Love will show you what you lack, love will laugh at all your plans  
 G Em7 D    
  And if your heart won't give it back, well, love will slip right through your hands 

PRECHORUS: 
 Am Cmaj7 D  
  But Heaven knows we've had our share of days we'd rather leave behind 
 Am Cmaj7 D  
  Oh, but love don't really seem to care, it makes the wrong turns turn right 

CHORUS: 
     G Em7 Am D     
And I wouldn't change a thing, it's perfectly imperfect, so crazy, but it's worth it 
     G Em7  
And I am wrapped around you like this ring, 
     Am D Cmaj7 G Em7 
And something tells me even if I could, I wouldn't change a thing 

BRIDGE: 
     Am D Cmaj7 G Am D Cmaj7 Bm  
I'm truly, deeply, madly, completely devoted, every moment, to my last breath, I'm yours 
VERSE 4: 
 G Em7 D  
  Got a picture in my head of a hundred years from now 
 G Em7 D  
  When all our lines have all been read and we're both up there lookin' down 

CHORUS 2: 
         G Em7 Am D     
Singin' I, I wouldn't change a thing, it was perfectly imperfect, and every bit was worth it 
     G Em7  
And I am wrapped around you like this ring, 
     Am D Cmaj7 G Em7 
And something tells me even if I could, I wouldn't change a thing 

OUTRO:  G Em7

A Change Is Gonna Come chords – Sam Cooke V8

 A Change is Gonna Come - Sam Cooke


  Bb 
I was born by the river in a little tent
  Cm7 Gm7 
And just like that river I've been running ever since
  Bb Cm7 Eb D7 
It's been a long time coming
  Gm7 Bb 
But I know a change is gonna come, oh yes it will
 
It's been too hard living, but I'm afraid to die
Cos I don't know what's out there beyond the sky
It's been a long, a long time coming
But I know a change is gonna come, oh yes it will

I go to the movie
And I go down town
somebody keep telling me don't hang around
Its been along time coming
But I know a change is gonna come, oh yes it will

   Cm7 Gm7 
Then I go to my brother
   Cm7 Gm7 
And I say brother help me please
   Gm7 C7 
But he winds up knockin' me
    F7 
Back down on my knees

There were times when I thought I couldn't last for long
But now I think I'm able to carry on
It's been a long, a long time coming
But I know a change gone come, oh yes it will

Change chords – Banks

 D E 
Always cold
             F#m A  
While you'd self-incriminate
      D E 
By avoiding all my questions
             F#m A 
And calling me an instigator
 D E 
Cut me down
         F#m A 
Always calling me unstable
        D E  
You so easily can make me cry
            F#m A 
Just cause you are in a mood

And you'd say

 D E F#m A  (2x)

 D E 
Call me out
           F#m A 
You would say I need attention
         D E 
Just because I put on makeup
           F#m A  
To ironically look good for you
 D E 
Cut me to pieces
            F#m A 
While you watched me disintegrate
             D E 
Because you like to tell me how you hate
                 F#m A 
All the ways I'm not enough for you

Then you'd say


[Chorus]

 D 
Baby don't go
 E 
I didn't know
 F#m 
I'll change I swear
 A 
I'll change I swear
 D 
Baby don't go
 E 
I'll make you wait
   F#m 
I promise I'll be better
     A 
All of these things they will change


 D 
Baby don't go
 E 
I didn't know
 F#m 
I'll change I swear
 A 
I'll change I swear
 D 
Baby don't go
 E 
I'll make you wait
   F#m 
I promise I'll be better
     A 
All of these things they will change

 D E 
Never guilty
                  F#m  
Say it ain't your fault
              A D E 
Because you had an emotionally abusive daddy
                  F#m A    
And cause of this you don't know how to act


 D E 
Poor poor baby
                       F#m A 
Say you can't help the fact that you're so crazy
                       D E 
And you're so good at making me feel guilty
                    F#m 
For trying to walk away
                            A 
Because I'm tired of being mad

Then you'd say


[Chorus]

 D 
Baby don't go
 E 
I didn't know
 F#m 
I'll change I swear
 A 
I'll change I swear
 D 
Baby don't go
 E 
I'll make you wait
   F#m 
I promise I'll be better
     A 
All of these things they will change


 D 
Baby don't go
 E 
I didn't know
 F#m 
I'll change I swear
 A 
I'll change I swear
 D 
Baby don't go
 E 
I'll make you wait
   F#m 
I promise I'll be better
     A 
All of these things they will change

http://www.hernameisbanks.com/

Change Tomorrow chords – Like A Storm

 I looked long and hard for this,hopefully this eets for expectations. Message me if you
have any thing I should change but all should be good at most part:3 have fun everyone.
I found it on this website http://chordify.net/chords/change-tomorrow-like-a-storm , 
Very hard to find LOL. Standard tuning

Intro:  Bm A G D A Fm Bm 
For the first time in years
  G 
There's a light up ahead
 D 
It's calling
(It's pulling me closer)
 Bm 
Reborn within
 G 
Now I'm shedding my skin
 D 
It's falling
(The weight off my shoulders)


 G 
Cause I can't stay
 A 
Chained to my secrets
 Bm 
No I can't stay
 A 
I'm bound by my regrets
    G 
I can't erase
 Em 
All of my errors
 G A 
Those days are gone forever


 D A 
I can change, I can
             Bm 
Change tomorrow
 D A 
I can change, I can
             G 
Change tomorrow

 Fm Bm 
On my knees in the rain
        G 
With my head hung in shame
              D 
Just crawling, stalling
(All alone in my ways)
        Bm 
Memories I can't erase
   G 
Faces I couldn't face
     D 
Haunt me
(My life lay to waste)


 G 
Cause I can't stay
 A 
Chained to my secrets
 Bm 
No I can't stay
 A 
I'm bound by my regrets
 G 
I need a break
 Em 
It's now or never
 G A 
Yesterday's gone forever

 D A 
I can change, I can
           Bm 
Change tomorrow
 D A 
I can change, I can
            G 
Change tomorrow

      D A 
For all the years of emptiness
 Bm G 
For all of my mistakes
             Bm 
For all the years I've
 D A Em 
Thrown it all away
 G A Bm 
     It's not too late

              Bm A G 
For all the years I've thrown it all away
(Those days are gone forever)


 A D G A 
I can change, I can
           Bm 
Change tomorrow
(For all of my mistakes)
 D 
I can change,
 A 
I can change,
 Em 
I can change
 A Bm 
Before it's too late
 A Bm 
It's not too late


Please Rate and Have fun  <div class="fb-meta"><div id="fb-root"></div><div class="fb-like" data-action="recommend" data-colorscheme="light" data-height="30px" data-href="http://tabs.ultimate-guitar.com/l/like_a_storm/change_tomorrow_crd.htm" data-layout="standart" data-send="false" data-show-faces="true" data-width="500px"></div></div>

We Never Change Tabs by Coldplay

 Coldplay - We Never Change (Parachutes)

My favourite Coldplay song ever.

!- Tune high e string down to C# -!

--- Chords: ---
                                            
F#madd11: E [--2--]    E6: E [--0--]    Bmadd9: E [--7--]
          A [--4--]        A [--2--]            A [--9--]
          D [--4--]        D [--2--]            D [--9--]
          G [--2--]        G [--1--]            G [--7--]
          B [--0--]        B [--0--]            B [--0--]
          C#[--0--]        C#[--0--]            C#[--0--]

   Aadd9: E [--5--]  C#m7: E [--9--]       Bm9: E [--7--]
          A [--7--]        A [--11--]           A [--x--]
          D [--7--]        D [--11--]           D [--7--]
          G [--6--]        G [--9--]            G [--7--]
          B [--0--]        B [--0--]            B [--0--]
          C#[--0--]        C#[--0--]            C#[--0--]

  B7sus2: E [--7--]   F#m: E [--2--]   Bmadd9*: E [--7--]
          A [--x--]        A [--4--]            A [--x--]
          D [--7--]        D [--4--]            D [--9--]
          G [--6--]        G [--2--]            G [--7--]
          B [--0--]        B [--2--]            B [--7--]
          C#[--0--]        C#[--0--]            C#[--0--]

   Dmaj7: E [--10--]                     Badd9: E [--7--]
          A [--12--]                            A [--9--]
          D [--12--]                            D [--9--]
          G [--11--]                            G [--8--]
          B [--10--]                            B [--7--]
          C#[--10--]                            C#[--0--]


-- Intro --

F#madd11 | F#madd11 | E6 | E6 | (x2)


--- Verse ---

        F#madd11              E6
I wanna live life and never be cruel,

        F#madd11                E6
I wanna live life and be good to you,

      Bmadd9 F#madd11           E6
And I wanna  fly and never come down,

    Bmadd9  F#madd11               E6      Aadd9
And live my life and have friends around


--- Chorus ---

C#[----------------------------------------------]  \
B [------------9b------9---------17----16--------]  |
G [------9-11-----------------------13----13-----]  |  x2
D [--11------------------------------------------]  |
A [----------------------------------------------]  |
E [----------------------------------------------]  /

                    C#m7          Aadd9
We never change, do we? No, no,

                   C#m7
We never learn, do we?

   Bmadd9  F#madd11          E6
So I wanna live in a wooden house

--- Verse 2 ---

      F#madd11                 E6
I wanna live life and always be true,

        F#madd11                E6
I wanna live life and be good to you,

Bmadd9 F#madd11             E6
I wanna  fly and never come down,

    Bmadd9  F#madd11               E6      Aadd9
And live my life and have friends around


--- Chorus ---

C#[----------------------------------------------]  \
B [------------9b------9---------17----16--------]  |
G [------9-11-----------------------13----13-----]  |  x2
D [--11------------------------------------------]  |
A [----------------------------------------------]  |
E [----------------------------------------------]  /

                    C#m7          Aadd9
We never change, do we? No, no,

                   C#m7
We never learn, do we?

   Bmadd9  F#madd11          E6
So I wanna live in a wooden house

    Bmadd9      F#madd11               E6
And making more friends would be easy


--- Bridge ---

Bm9  B7sus2       Bm9         B7sus2  E6     Bm9
        Oh and I don't have a soul to save,

 B7sus2     Bm9       B7sus2      E6    Bmadd9
  Yes and I sin every single day

F#madd11            E6   Bmadd9
We never change, do we?

F#madd11           E6
We never learn, do we?


--- Outro ---

   Bmadd9  F#m       E6     Bmadd9*
So I wanna live in a wooden house,

                  F#m             Dmaj7  Badd9
Where makin

Could It Be Another Change intro Tabs by The Samples

 |--------------------0----------------------------------|
|-------------------------------------------------------|
|------------1---------------1-----1-------1/2--2-----2-|
|----2-----2-------2-------2-----2-------2----------2---|
|--------2-------2-------2-------------2----------0-----|
|--0---0-------0-------0-------0-----0----------0-----0-|

Capo 5

Never Change chords – Matt Costa

 Capo on first fret



 C/G C/G Em Am C/G 
talk to my eyes, ask them how they doin'
 Dm G7 C/G G7 
some things don't look so good today
 C/G Em 
talk throug the summer
        Am C/G 
he was worried about women
 Dm G7 C/G 
guess that some things never change
 G F C/G 
guess that some things never change


 C/G F 
never change, never change
 G7 C/G 
just when you think they'll never change
 C/G F 
never change and then they change
 G7 C/G 
just when you think they'll never change


 C/G Em 
talk to my feet
 Am C/G 
said they can't stop moving
 Dm G7 C/G G7 
wish you would carry me far away
 C/G Em 
even my street
    Am C/G 
is cracked from heavy weather
 Dm G7 C/G 
maybe they'll fix it one of these days
 G F C/G 
guess that some thing never change


 C/G F 
never change, never change
 G7 C/G 
just when you think they'll never change
 C/G F 
never change and then they change
 G7 C/G 
just when you think they'll never change

 Dm Am 
the old man at
     G7 C/G 
the corner shop
 Dm Am 
it was late last night
         G7 C/G 
but his heart just stopped


 C/G F 
never change, never change
 G7 C/G 
some things never change
 C/G F 
never change then they change
 G7 C/G 
just when you think they'll never change


 F G7 C/G

Inuyasha – Change The World chords – Misc Cartoons

 CHANGE THE WORLD:

Intro:

            Dsus4 D   
I WANT TO CHANGE THE WORLD

 Dsus4 D A 
Jounetsu tayasazu ni

 F#7 G D 
Takanaru mirai e to wo nobaseba

      Em7 Asus4 A Dsus4 D 
Kagayakeru hazu sa IT'S WONDERLAND


Verse/Estrofa:

 F Cm Bb Dm 
Kimi no kokoro furueteta asu no mienai yo

     Bb F Gm F 
Nanimo shinjirarezu mimi wo fusagu


Pre-Chorus/Pre-Estribillo:

      Bb F Am Dm     
Kimi ni deaeta toki hontou no ibasho mitsuketa

       Bb F Gm 
Nanigenai yasashisa ga koko ni atte

        Asus4 
Bokura mezameru


Chorus/Estribillo:

            Dsus4 D   
I WANT TO CHANGE THE WORLD

 Dsus4 D A 
Nido to mayowanai

 F#7 G D Em7 Asus4 A  
Kimi to iru mirai katachi doreba dokomademo toberu sa

 Dsus4 D  
CHANGE MY MIND

 Dsus4 D A 
Jounetsu tayasazu ni

 F#7 G D 
Shiranai ashita e tsubasa higore

      Em7 Asus4 A 
Habatakeru hazu sa IT'S WONDERLAND


Outro: x2

 Dsus4  -  D  |  Dsus4  -  D  |  A  |  F#7  |  G  |  D  |  Em7  |  Asus4  -  A  |

Chords by Fefe - Tron544

YOUTUBE: http://www.youtube.com/user/Tron544
FACEBOOK: http://www.facebook.com/Tron544

Inuyasha – Change The World Tabs by Misc Cartoons

 CHANGE THE WORLD:

Intro:

e|---------------------------------------------------------------------------------------|
B|---------------------------------------------------------------------------------------|
G|----------9--12--11--11----12--11--11--9------11--9--9----11--12--11--9--9--11--9--------|
D|------12----------------------------------12---------------------------------------12--|
A|--12-----------------------------------------------------------------------------------|
E|---------------------------------------------------------------------------------------|

e|------------------------------------------------------------------------------|
B|------------------------------------------------------------------------------|
G|----------------9----------------11--12--11--9--------------------------------|
D|--9--9--11--12-----12--------12-----------------12--12----12--11--12--11--12--|
A|-------------------------12---------------------------------------------------|
E|------------------------------------------------------------------------------|


Verse/Estrofa:

e|-------------------------------------------------------------------|
B|-------------------------------------------------------------------|
G|-------------------------------------------------------------------|
D|--10--10--10--10--10--10--10--8--7--8--------7--8--8--8--7------7--|
A|-----------------------------------------10-----------------10-----|
E|-------------------------------------------------------------------|

e|----------------------------------|-----------------------|
B|----------------------------------|-----------------------|
G|--------------7------------9--10--|--7--10--10--9--9--10--|
D|--7----------------10--10---------|-----------------------|
A|-----10--8------------------------|-----------------------|
E|----------------------------------|-----------------------|


Pre-Chorus/Pre-Estribillo:

e|------------------------------------------------------------------------------|
B|---------------------------------------------------------8--------------------|
G|------------7--7--7--9--10--9----7-h-9--7-h-9---------------10--9--9--10--10--|
D|-----7--10-------------------------------------10----10-----------------------|
A|--8---------------------------------------------------------------------------|
E|------------------------------------------------------------------------------|

e|--------------------------------------------------------------------------------|
B|--------------------------------------------------------------------------------|
G|--7--7--9--10--10--10--9--7--------------------------------7--7--7--7--6--7--9--|
D|-----------------------------10----10--10--10--8--7-----------------------------|
A|-----------------------------------------------------10-------------------------|
E|--------------------------------------------------------------------------------|


Chorus/Estribillo:

e|---------------------------------------------------------------------------------------|
B|---------------------------------------------------------------------------------------|
G|----------9--12--11--11----12--11--11--9------11--9--9----11--12--11--9--9--11--9--------|
D|------12----------------------------------12---------------------------------------12--|
A|--12-----------------------------------------------------------------------------------|
E|---------------------------------------------------------------------------------------|

e|--------------------------------------------------------------------|
B|--------------------------------------------------------------------|
G|----------------------------------12--11--9----------------------9--|
D|--9--9--11--12----------------12-------------12--12--12--11--12-----|
A|----------------12--12--12------------------------------------------|
E|------------------------------------------------------------

Everything Will Change chords – Gavin Degraw

 (Verse)
 D 
Take those boots off the shelf
 A 
Wipe that dust off yourself
 Bm G 
Even you've been through hell you're back
               D 
It's time to separate the men from the boys
 A 
And the women from the girls and the tools from the toys
 Bm G 
Even you're freakin out just relax

(Chorus)
 D A 
Hey, before it gets too late
                     Bm 
Before the night is over
                     G 
Before the world's awake
                 D  
Everything will change
                       A 
Hey, I fell it coming on
                 Bm G 
Starting like a fire, tonight you lit the flame
                       D 
Now everything will change

(2e Verse)

Back when it used to hurt
          A 
Took you a little while just to find the words
     Bm G 
Losing, well, it sometimes burns, but you keep moving on
              D 
You’ve got to grow strong like you’re leading the nation
       A 
Got to make the best out of this situation
         Bm 
Get your hands up like it’s a celebration
        G 
And you keep moving on

(Chorus)
...

 D A   
(ooooooh)
                     Bm    
Now everything will change

       G 
(ooooooh)
                   D 
Everything will change

          A Bm G 
(you can talk the talk-talk, but you can’t walk the walk-walk)

 D 
Take those boots off the shelf
 A 
Wipe that dust of yourself
 Bm G  
Even if you've been through hell you're back


(Chorus)

       A Bm 
It'll change......
(you can talk the talk-talk, but you can't walk the walk-walk)
               G 
You won't know If you don't try
(you can talk the talk-talk, but you can't walk the walk-walk)
 D A      
It’ll change...
(you can talk the talk-talk, but you can't walk the walk-walk)  
 Bm 
Everything changes like 500 stages
      G 
You won't have your story
                           D 
Wrappen in your pages yeah..

Dont Change chords – Pete Murray

 G G/F# 
I'm standing here on the ground

 Em                            
The sky above won't fall down

 Am C G 
See no evil in all directions

 G G/F# 
Resolution of happiness

 Em 
Things have been dark for too long



 Am C 
Don't change for you

 Am C G 
Don't change a thing for me

 Am C 
Don't change for you

 Am C G 
Don't change a thing for me




 G G/F# 
I found a love I had lost

 Em 
It was gone for too long

 Am C G                              
Hear no evil in all directions

 G G/F# 
Execution of bitterness

 Em 
Message received loud and clear




 Am C 
Don't change for you

 Am C G 
Don't change a thing for me

 Am C 
Don't change for you

 Am C G 
Don't change a thing for me


Solo


 G G/F# 
I'm standing here on the ground

 Em 
The sky above won't fall down

 Am C G             
See no evil in all directions

 G G/F# 
Resolution of happiness

 Em 
Things have been dark for too long




 Am C 
Don't change for you

 Am C G 
Don't change a thing for me


 Am C Am C G

Change My Needs chords – Scars On 45

 http://www.scarson45.com/


Capo 2

 D  :xx0233
 Em :022033
 C  :x32033
 Am :x02233
 G  :320033
 
e|-12-10------12-10---------|
B|-------10-8-------10-8-12-|
G|--------------------------|
D|--------------------------|
A|--------------------------|
E|--------------------------|

Intro: 
 D Em C D Em C D Em C D Em C 
I never meant to say you were a thorn in either side,
          D Em C 
It was a side effect from the scars on the fourty-fives.
             D Em C 
And as the vital mistakes, it reminds me of what we have,
                    D Em C 
Despite the things you do, you know I'm a fool for you.

 D Em C D Em C 
They say a legal kiss is not as good as a stolen one,
             D Em C 
We put our lives on show and yet we sing to a different song.
              D Em C 
And from the bassinet to the graveside we never walk,
                     D Em C 
Of everything I've lost, I miss my mind the most.

 Em C  
I never once understood your dealings,
 Am D 
A group of friends who I'd give what for.
 Em C  
And I could name every crack on our ceiling,
    Am D 
A sight of thorns.
 Em C  
Am I a frame in your bigger picture?
 Am D 
A rubber ring for your stormy seas?
 Em C  
If I could be just a train fare richer
 Am             
I'd change my needs
 D 
I'd change my needs
 Em 
I'd change my needs
 C 
I'd change my needs

         D Em C 
And in the half light a rush of violence is in the place,
          D Em C 
And if a look could kill you'd need a licence for your face.
         D Em C 
You say that love is blind and I'm the one who restored your sight.
                     D 
The girl who never knows,
   Em C 
I'm the girl who never knows


 Em C  
I never once understood your dealings,
 Am D 
A group of friends who I'd give what for.
 Em C  
And I could name every crack on our ceiling,
    Am D 
A sight of thorns.
 Em C  
Am I a frame in your bigger picture?
 Am D 
A rubber ring for your stormy seas?
 Em C  
If I could be just a train fare richer
 Am             
I'd change my needs
 D 
I'd change my needs
 Em 
I'd change my needs
 C 
I'd change my needs

               G 
I'd change my needs
End on  G

Till My Change Comes chords – Gates Praise

 ‘Til My Change Comes

Verse 1
      E B
I’ve set the Lord always before me
                   F#m
I shall not be moved
                    Bsus B
I shall not be moved
        E B
His eyes are always towards me
                 F#m
I will never lose
                 Bsus B
I will never lose

Chorus
               E
And I will wait
                    B
‘Til my change comes
                     F#m
‘Til my change comes
                     Bsus B
‘Til my change comes

Verse 2
           E A
As for me, I will behold Your face
               F#m
In righteousness
                 Bsus B
Your righteousness
 E A
I will be satisfied when I am changed
               F#m
To Your likeness
           Bsus B
Your likeness

People Dont Change Blues chords – The Growlers

 This is a really nice song sung by the guitarist instead of brookes. It's off
the album "Couples. Vol 8".

The Song can be played like i have put below (how the band play it live)
or you can have a capo on the first fret to make life a bit easier.

Oh and at the start of this song in the video there's
"Twirlin' Dervish Blues", which is the track before on the album, it goes
like this;

e|------------------------------------------|
b|------------------------------------------|
g|-/10-10-9-9-------------------------------|
a|------------11-11-10-10-8-8-6-6-8-8-10-10-|
d|------------------------------------------|
e|------------------------------------------|


 Cm
Change people don't change
              Eb
People dont change when you want them to
     Cm
Oh change people don't change
            Eb
You still got a lotta drugs to do.
     Cm
Oh change, people don't change
              Eb
People don't change when you want them to
     Cm
Yeah i, i looked the wrong way
               Eb
crossing the one way street that day


 Fm Bb
Ohhh it's like i'll accept,
 Eb G Cm
Regrets a' paradise.
 Fm Bb Cm
Regrets a' paradise...No dice.
 Eb
You don't have to shake your fist.

       Cm
Cause change, people don't change
                Eb
People don't change when you want them to.
    Cm
Oh more, children it's more
 Eb
More than you care to do.
    Cm
It's so much, it's so many
  Eb
Saving all your shinny pennies


  Fm Bb Eb G Cm
All my wishing pennies made up my mind uh huh
  Fm Bb G
All my wishing pennies made up my mind.

 G ~

 Cm
Down in the ditches of a friendly sea,
    Eb
I found myself, I was following me.
 Cm Eb
Down in the ditches of a friendly sea (I found me, i found me)

 Cm
Yeah change people don't change
 Eb
When they want you want them to,
 Cm
Yeah i looked the wrong way
              Eb
Crossing the one way street that day.

 Fm Bb
Ohhh it's like i'll accept
 Eb G Cm
Regrets a' paradise
 Ab Bb Cm
Regrets a' paradise...No dice.
 Eb
You don't have to shake your fist.

 Cm
Cause change people don't change.
         Eb
Oh change people don't change
 Cm
You still got a lotta drugs to do
          Eb
You got a lotta drugs to do.




That's it, you can check it out here:


Peace