Tag: Cheers

Three Cheers For Five Years chords – Mayday Parade V4

 Since I've yet to find a tab for this in the right key, let alone with the right words or all the chords where
they should be - here y'all go. I love this song so I thought it'd be nice to share a more accurate version...
I hope I've done it justice. This is only my second tab... please rate and comment, it would be helpful! 
- Charlie :)

Key: B

Tuning: Standard EADGBe

~ hold chord
/ repeat chord (strum down)

Chords:

B    [799877] or [223332]
 F#    [244322]
 G#m   [466444]
 E     [022100]

Intro: (the 4th section isn't quite right because it's hard to hear, but this is how I play it)

          B F# G#m F# 
e|---------2-------|---------2-------|---------2-------|---------2-------|
B|---0---0---0---0-|---0---0---0---0-|---0---0---0---0-|---0---0---0---0-|
G|-4---4-------4---|-3---3-------3---|-1---1-------1---|-----------------|
D|-----------------|-----------------|-----------------|-4---4-------4---|
A|-----------------|-----------------|-----------------|-----------------|
E|-----------------|-----------------|-----------------|-----------------|
         x2                x2                x2                x2

Verse 1: (you can repeat the intro or play the chords below)

                                B 
I swear that you don't have to go
                                 F# 
I thought we could wait for the fireworks
                                  E  
I thought we could wait for the snow
                          F# 
To wash over Georgia and kill the hurt
                                 B 
I thought I could live in your arms
                          F# 
And spend every moment I had with you
                             E  
Stay up all night with the stars
                              F# 
Confess all the faith that I had in you (I had in you)


Refrain:

 G#m F# E 
  To late, I'm sure and lonely
               E 
Another night, another dream wasted on you
 G#m F# E 
  Just be here now against me
                   E  ~
You know the words so sing along for me baby


Chorus:

 B E G#m 
For heaven's sake I know you're sorry
                    E 
But you won't stop crying
           F# B 
This anniversary may never be the same
          E G#m 
Inside I hope you know I'm dying
                 E 
With my heart beside me
              F# E 
In shattered pieces that may never be replaced
          F#          //        /
And if I died right now you'd never be the same


Interlude 1: 

          B F# G#m              
e|---------2-------|---------2-------|-2~~-222222222222|
B|---0---0---0---0-|---0---0---0---0-|-0~~-000000000000|
G|-4---4-------4---|-3---3-------3---|-1~~-111111111111|
D|-----------------|-----------------|-----222222222222|
A|-----------------|-----------------|-----222222222222|
E|-----------------|-----------------|-----------------|
         x2                x2                               

Verse 2:

                            G#m 
I thought with a month of apart
                           F# 
Together would find us an opening
                                  E 
And moonlight would provide the spark
                          E 
And that I would stumble across the key
                               G#m 
Or break down the door to your heart
                          F# 
Forever could see us not you and me
                              E 
And you'd help me out of the dark
                             E 

Gwres Prynhawn Tabs by Gorkys Zygotic Mynci

 
Gorky's Zygotic Mynci - 'GWRES PRYNHAWN' (Track 05 from the 1994 album 'Tatay')

Hello. This is a lovely, very enjoyable to play and not difficult song. I got the lyrics from
http://www.gorkys.freeserve.co.uk/gorkys/disco/lyrics/tgwres.htm
Cheers.




INTRO:

e ----------------------------------------|
B --------7-----8--7----------------7-----|
G -----4-----4--------4----------6-----6--|  [x4]
D --5--------------------5--5/7-----------|
A ----------------------------------------|
E ----------------------------------------|
(From the 2nd time on, singing ahhh ahhh...)



VERSE 1:

C#m        B          C#m     B
Dawnsio 'mlaen i'r gwres prynhawn
        F#m          G#m     C#m      E   G#m   E   G#m
A rwy'n addo erbyn yfori byddai wedi mynd
  (B)    C#m      B          C#m      B
A rwy'n dawnsio mlaen i'r gwres yn y nos
        F#m          G#m     C#m      E   G#m   E   G#m
A rwy'n addo erbyn yfori byddai wedi mynd



INTERMEZZO:

A   A   Bm   D  [x2]       (I play A as xx7655; Bm as xxxx32; D as xx0232)

Then:   E   B   (in crescendo)



VERSE 2 (same chords as in VERSE 1, different lyrics):

A rwy'n dawnsio 'mlaen i'r gwres yn y nos
A rwy'n addo erbyn yfori byddai wedi mynd
A rwy'n dawnsio 'mlaen i'r gwres yn y dydd
A rwy'n addo erbyn yfori byddai wedi mynd



INTERMEZZO: this time the final chord is G#(?) (instead of B)



VERSE 3:
(C#) D#m       C#         D#m     C#
    Dawnsio 'mlaen i'r gwres prynhawn
        G#m          A#m     D#m      F#   A#m   F#   A#m
A rwy'n addo erbyn yfori byddai wedi mynd
  (C#)   D#m      C#         D#m      C#
A rwy'n dawnsio mlaen i'r gwres yn y nos
        G#m          A#m     D#m      F   A#m   F#..........
A rwy'n addo erbyn yfori byddai wedi mynd



OUTRO:

e --------4-----5--4----------------4--|
B -----2-----2--------2----------4-----|  [x3]
G --2--------------------2--2/4--------|
(Singing 'ahhh ahhh' from the first time)

The last (4th) time (also singing), slows down and adds at the end the final chord xxx22x:
e --------4-----5--4----------------4--x--|
B -----2-----2--------2----------4-----2--|
G --2--------------------2--2/4--------2--|

The Cold One chords – Mike Ryan

  Night Comes Falling
Song: The Cold One
Written by: Mike Ryan, Devin Kleinfelder, Wayne Foster



 Cadd9 G Em G  
Seeing things a little different 'round here
        C G D G 
Honey aint much changed since you left last year
 G Em G 
This town's still dead as it used to be
     C G D G 
ah main street's as broken as your company

 C/F# G Em C/F# 
I've seen my share of heartache in cheap motels yeah they're all the same
 C/F# G D               
Stuck inside of a living hell honey you're the one to blame
 C/F# G Em C/F# 
I'd rather be the cold one and tell you just the way I feel
 C/F# G D G 
Than to come back home and hold you knowing the road has my heart to steal

 Cadd9 G Em G 
You left here a pretty high flyer
            C G D G 
Yeah the greener grass made a fool of you
             G Em G 
Now your coming back sorry, well your a liar
              C G D G    
and girl im way past long gone, over you


Repeat Chorus...

 Cadd9 G Em G 

Bridge
 D C G 
Well I guess you got my best now im taking back whats left
 D C D 
I guess I could get back with you but I'd just be wrecking myself


Repeat Chorus...


Tag
 C/F# G Em A 
I'd rather be the cold one and tell you just the way I feeeeeeel
          C/F# G D G  
than to come back home and hold you knowing the road has my heart to steal.


 Cadd9 G Em G 




*** This is the way that I play it (most of the time) but feel free to play either 
variation of "C" throughout the song...(Cadd9, C, or C/F#) they all sound right. Cheers! 




http://mikeryanband.com

Little Bird Tabs by Laura Marling

 Laura Marling - Little Bird

Tuning: DGDGBD (low to high), Open G

I'll mostly just tab chord patterns. More than that isn't necessary for a lot of this.
It'd take ages to tab out all the plucking and stuff when it's easy enough to figure out 
from the chord patterns.

Intro

d|---------------0---------|
B|-7-------0-------0-------|
G|---9-6-7-----0-----0-----|
D|-----------0---------0---|
G|-0-------0-------------0-|
D|-------------------------|  x 3

(Second and third times are a slight variation on the open string plucking)

Verse
   Oh Rosie....
d|---------------0---------|
B|-7-------0-------0-------|
G|---9-6-7-----0-----0-----|
D|-----------0---------0---|
G|-0-------0-------------0-|
D|-------------------------| x 2

   I couldn't save you...
d|-----------------------------|
B|-7-------7-------7-------7---|
G|---9-6-7---9-6-7---9-6-7---9~|
D|-----------------------------|
G|-0-------0-------0-------0---|
D|-----------------------------|

Riff

d|-9-12--9-12-9-7-----------|
B|-8-12--8-12-8-7-7-5--4--3-|
G|----------------7-5--5--4-|
D|--------------------------|
G|-0-0---0-0--0-0-0-0--0--0-|
D|--------------------------|



Chorus
      Little bird...
d|-------------------------------|
B|-2~----------------0-2-3-5-7-7-|
G|-2~----------------0-2-4-6-7-7-|
D|-------------------------------|
G|-0~-----------------0-0-0-0----|
D|-------------------------------|  x 2

   With a feather in my wing....
d|--------------------------|
B|-3--------------5---------|
G|-3--------------5---------|
D|-3--------------5---------|
G|-3--------------5---------|
D|--------------------------| x 4

That's all the necessary parts. Here they are in chronological order:

Intro
Verse
Riff
Verse
Riff
Chorus
Riff
Chorus
Riff
Verse
Riff
Chorus
Riff
Chorus
Riff
Chorus
Riff
Chorus
Riff

That should be all. Feedback welcome.

Cheers,
Sam

Three Cheers For Five Years Acoustic chords – Mayday Parade V3

 Song: Three Cheers For Five Years (Acoustic Version)
Artist: Mayday Parade

Standard Tuning
Capo 4th fret        



                                 G 
I swear that you dont have to go
                                 Gsus2 
I thought we could wait for the fireworks
                                 Em7 
I thought we could wait for the snow
                          Cadd9 
To wash over Georgia and kill the hurt
                                G 
I thought I could live in your arms
                         Gsus2 
And spend every moment I had with you
                            Em7 
Stay up all night with the stars
                              Cadd9 
Confess all the faith that I had in you


PRE-CHOURS:


 Em7 Gsus2 G 
Too late, Im sure and lonely

Another night, another dream wasted on you
 Em7 Gsus2 G 
Just be here now against me

You know the words so sing along for me baby


CHORUS:

 G Gsus2 Em7 
For heaven's sake I know you're sorry
                    Cadd9 
But you won't stop crying
           Gsus2 G 
This anniversary may never be the same
          Gsus2 Em7 
Inside I hope you know I'm dying
                 Cadd9 
With my heart beside me
              Gsus2 Em7 
In shattered pieces that may never be replaced
          Gsus2 
And if I died right now you'd never be the same

INTERLUDE/VERSE 2:
  ( G )                                ( Gsus2 )
e|----------------------------------|----------------------------------|
B|---------3---------------3--------|---------3---------------3--------|
G|-5-0-5-0---0-5-0-5-0-5-0---0-5-0--|---0---0---0---0---0---0---0---0--|
D|----------------------------------|-4---4-------4---4---4-------4----|
A|----------------------------------|----------------------------------|
E|----------------------------------|----------------------------------|

                                      Em7 
  (Cadd9)      I thought with a month of apart
e|----------------------------------|
B|---------3---------------3--------|
G|---0---0---0---0---0---0---0---0--|
D|-2---2-------2---2---2-------2----|
A|----------------------------------|
E|----------------------------------|

                           Gsus2 
Together would find us an opening
                                 G 
And moonlight would provide the spark

And that I would stumble across the key
                                Em7 
Or break down the door to your heart
                          Gsus2 
Forever could see us not you and me
                             G 
And youd help me out of the dark

And Id give my heart as an offering


PRE-CHORUS


CHORUS

OUTRO:

     Em7 Gsus2 Cadd9 G 
And I will always remember you as you are right now to me
     Em7 Gsus2 G Cadd9 
And I will always remember you now, remember you now

    Cadd9 Gsus2 Em7 
So sleep alone tonight with no one here just by your side
             G 
Sleep alone tonight

 Em7 
How does he feel, how does he kiss?
 Gsus2 
How does he taste while he's on your lips?
 Em7 
How does he feel, how does he kiss?
 Gsus2 
How does he taste while he's on your lips?
 Em7 
How does he feel, how does he kiss?
 Gsus2 
How does he taste while he's on your lips?

 Em7 
I can't forget you
   G

Phoenix Chords – Satyricon

 Awesome Band, awesome Song, awesome Lyrics.
Have fun with the Chords and feel free to improve!

Cheers!




Satyricon – Phoenix


 D#m Bbm D#m Bbm D#m Dm D#m Dm D#m Dm D#m Dm Bbm Fm Fm Bbm  
Into the night
            Fm  
My long suffering friend
                  Bbm 
We'll be reborn again
                              Fm 
Right here where everything ends


                   Bbm 
Face to the sky
                 Fm 
A trail of smoke in the air
                 Bbm 
Pass into emptiness
                    Fm 
New life's awaiting you there


                        D#m 
Slave to some wretched old
                      Fm 
Imagination of yesteryear
                      D#m 
Now all that grows in the skulls
                              Fm 
Of the living are flowers of fear


             Bbm 
The morning red
                    Fm 
A sun-god calling you back
                            Bbm 
Down through a thousand years
                        Fm 
White embers whistle and crack



                  D#m 
Await the dawn with her kiss of redemption,
             Fm 
My firebird!
                       D#m 
You were the queen of the souls of all men
                                  Fm 
Before there was the w-o-r-d


 Bbm Fm Fm Bbm Bbm D#m Fm Bbm C# Fm# Fm Bbm Cm Bbm Cm C# 
The morning new, the morning red,
         D#m F#m 
The fiery promise
 Bbm F#m Fm 
Mad swirling smoke wheels round her head
 Bbm Cm Bbm Cm C# D#m F#m 
Dedication to the queen of souls, her lost disciples
 Bbm F#m  
And when the fire's work is done
                         Fm Bbm C#m F#m C#m 
Our time to be reborn



                    Bbm 
By pagan streams
                               Fm  
A wind whips the leaves from the trees
                              Bbm 
And it is revealed to us
                    Fm 
That we are dreams within dreams

                            D#m 
Born from some wretched
                                         Fm 
Old imagination of yesteryear
                      D#m 
Now all that grows in the skulls of the living
                          Fm 
Are flowers of fear




 Bbm Cm Bbm Cm C# 
The morning new, the morning red,
         D#m F#m 
The fiery promise
 Bbm F#m Fm 
Mad swirling smoke wheels round her head
 Bbm Cm Bbm Cm C# D#m F#m 
Dedication to the queen of souls, her lost disciples
 Bbm F#m  
And when the fire's work is done
                         Fm Bbm C#m F#m C#m Bbm Fm  
Our time to be reborn



 Bbm Fm Bm Bbm Fm</

Cause For Alarm Tabs by Voice Of A Generation

 -------------------------------------------------------------------------------
                             Cause For Alarm- Voice Of A Generation
-------------------------------------------------------------------------------
Tabbed by: TomHalfPInt
E-mail:Tommyhalfpint@gmail.com
This is the official breaking of my tablature virginity Love these
guys(http://www.epitaph.com/artists/artist/84/Voice_Of_A_Generation) no tabs yet online 
what the???? thought
i'd get on  it enjoy! feedback would be cool, cheers Tommy!
Tuning: EADGBE
The intro leads something like this
e|-6-6--7-7--10-10------------|
B|-7-7--8-8--10-10--12-10-12--|
G|-6-6--7-7---------11-11-11--|
D|----------------------------|
A|----------------------------|
E|----------------------------|

e|-6-6--7-7--10-10------------|
B|-7-7--8-8--10-10--12-10-12--|
G|-6-6--7-7---------11-11-11--|
D|----------------------------|
A|----------------------------|
E|----------------------------|

e|-6-6--7-7--10-10---------------------------------------------------------------------|
B|-7-7--8-8--10-10--12-12--------------------------------------------------------------|
G|-6-6--7-7---------11-11--------------------------------------------------------------|
D|-------------------------------------------------------------------------------------|
A|-------------------------------------------------------------------------------------|
E|-------------------------------------------------------------------------------------|

e|-6-6--7-7--10---------------------------------------------------------------------|
B|-7-7--8-8--10---------------------------------------------------------------------|
G|-6-6--7-7------9-x----------------------------------------------------------------|
D|---------------9-x----------------------------------------------------------------|
A|---------------7-x----------------------------------------------------------------|
E|----------------------------------------------------------------------------------|

And This is the Riff it's played with a bit throughout the song
e|------------------------------------------------------------------------------------|
B|------------------------------------------------------------------------------------|
G|-----------7-7----------------------------------------------------------------------|
D|-4-4--7-7--7-7----------------------------------------------------------------------|
A|-4-4--7-7--5-5--9-7-9---------------------------------------------------------------|
E|-2-2--5-5-------7-5-7---------------------------------------------------------------|

e|-------------------------------------------------------------------------------|
B|-------------------------------------------------------------------------------|
G|-----------7-7-----------------------------------------------------------------|
D|-4-4--7-7--7-7-----------------------------------------------------------------|
A|-4-4--7-7--5-5--9-7-9----------------------------------------------------------|
E|-2-2--5-5-------7-5-7----------------------------------------------------------|

e|---------------------------------------------------------------------------------------|
B|---------------------------------------------------------------------------------------|
G|-----------7-7-------------------------------------------------------------------------|
D|-4-4--7-7--7-7--9-9--4-4--7-7--9-9-9-9-9-9-9-9-----------------------------------------|
A|-4-4--7-7--5-5--9-9--4-4--7-7--7-7-7-7-7-7-7-7-----------------------------------------|
E|-2-2--5-5-------7-7--2-2--5-5----------------------------------------------------------|

Over the verses the lead does a whole bunch of these ones sliding up to the root.
e|---------------------------------------------------------------------------------|
B|---------------------------------------------------------------------------------|
G|-9/11----------------------

Sure Be Cool If You Did Tabs by Blake Shelton V2

 Blake Shelton - Sure Be Cool if You Did
Standard Tuning
Capo 4th fret

Haven't seen a tab with the intro and stuff so here is what I hear. I also looked at a 
video of Blake playing and this is what I could get out of it. Cheers!

Intro Riff (x2)

e|------------------------------3--3---------2h3p2--------------------------|
B|------------------------------3--3---------3------------------------------|
G|-------0----------0-----------0--0---------2------------------------------|
D|---------0------2-------------2--2---------0------------------------------|
A|--0h2------2--3------2b-------3--3---------x------------------------------|
E|------------------------------x--x---------x------------------------------|


                     G                     Cadd9             D
I was gonna keep it real like chill like only have a drink or two
e|-----------------------3----------------------3-------------3--3-----2-----|
B|-----------------------3----------------------3-------------3--3-----3-----|
G|-----------------------0----------------------0-------------2--2-----2-----|
D|-------------------0----------------------0-----------------0--0-----0-----|
A|-------------------0h2--------------------2h3---------------x--x-----x-----|
E|------------------------------------------------------------x--x-----x-----|
       G                        Cadd9                        D
But it turned into a party when I started talking to you
e|-----------------------3----------------------3-------------3--3-----2-----|
B|-----------------------3----------------------3-------------3--3-----3-----|
G|-----------------------0----------------------0-------------2--2-----2-----|
D|-------------------0----------------------0-----------------0--0-----0-----|
A|-------------------0h2--------------------2h3---------------x--x-----x-----|
E|------------------------------------------------------------x--x-----x-----|
  Cadd9                 D             Em                           G
  Now you're standing    in the neon looking like a high I wanna be on
  Cadd9                 D
  Baby it's your call,    no pressure at all


                  Cadd9                         G
You don't have to throw back your pretty pink lemonade shooter
    D
And lean a little closer
                  Cadd9                 G                       D
You don't have to keep on smiling that smile that's driving me wild
D
And when the night is almost over
Cadd9                      G                   D
Meet me in the middle of a moonlit Chevy bench seat
D                      Em      G             Cadd9
And do a little bit of country song, hanging on
Cadd9               G                    D
You don't have to keep me falling like this
D                             Cadd9
But it'd sure be cool if you did

G (hammer 2 on A string)     D



          G                          Cadd9                   D
You can't shoot me down cause you've already knocked me dead
e|-----------------------3----------------------3-------------3--3-----2-----|
B|-----------------------3----------------------3-------------3--3-----3-----|
G|-----------------------0----------------------0-------------2--2-----2-----|
D|-------------------0----------------------0-----------------0--0-----0-----|
A|-------------------0h2--------------------2h3---------------x--x-----x-----|
E|------------------------------------------------------------x--x-----x-----|
       G                      Cadd9                      D
Got me falling apart with my heart talking out of my head
e|-----------------------3----------------------3-------------3--3-----2-----|
B|-----------------------3----------------------3-------------3--3-----3-----|
G|-----------------------0----------------------0-------------2--2-----2-----|
D|-------------------0----------------------0-----------------0--0-----0-----|
A|-------------------0h2--------------------2h3-------

What Will Give Chords – The Radio Dept

 The Radio Dept. - What Will Give


Standart tuning, no capo

Used chords:

Verse

 Gmaj7  320002

 D      xx0232

 Dsus2  xx0230

A*    xx0220 (not sure of its name...)

Refrain

G     320033 or 355433

 A      002220

 A5     577655

End of refrain

 A *    xx022x

 G      x2000x

 D      xx023x



This is the beginning (piano playing) and also the verse, I tried to do it for the 
guitar (not sure, if the timing is accurate though, so listen to the song to figure it out, 
it's not that hard)

   Gmaj7 D Dsus2 A *   Dsus2 Gmaj7 

E|----2---0--5--2--0--2--2--0--------------|
B|-0--0---0--0--0--0--3--3--3--2--2--3--0--|
G|-0--0---0--0--0--0--2--2--2--2--2--2--0--|
D|-0--0---0--0--0--0--0--0--0--0--0--0--0--|
A|-2--2---2--2--2--2--------------------2--|
E|---(3)-----------------------------------|


 Gmaj7 D Dsus2 A *   Dsus2 Gmaj7 
Bloody but unbowed

 Gmaj7 D Dsus2 A *  Dsus2 Gmaj7 
You turn to face the crowd

 Gmaj7 D Dsus2 A *  Dsus2 Gmaj7 
How can you bring yourself to even care?

 Gmaj7 D Dsus2 A *  Dsus2 Gmaj7 
Show me a weakness if you dare


 G A 
What will give?

 A G 
Be sensitive

 G A 
Keep it pure,

 A G 
be secretive

 G A5 
Of this I'm sure

 G A5 
How I want to hide

      A *        G D A *    G A *    D 
Like Jandek before playing live

You fell on deaf ears
after screaming cheers
You'd seen it all before in your mind
You saw it all before in your mind

 

Wild Eyes solo Tabs by Parkway Drive V2

Songs in drop B 

Interlude 

Rythm guitar 
|------------------------------------------------------|
|------------------------------------------------------|
|------------------------------------------------------|
|------------------------------------------------------|
|--5777735----5777753----5777735-----------------------|
|------------------------------------------------------|


Lead/Solo 

|----------------2h3p2-2h3p2-------------------------|
|--5-5-3--5-5-3-------3------------------------------|
|----------------------------------------------------|
|----------------------------------------------------|
|----------------------------------------------------|
|----------------------------------------------------|

|----------------------7-7-5-5------5b6r5------------|
|--355553----577b8r7-----------7--78-----------------|
|--------42---------7--------------------------------|
|----------------------------------------------------|
|----------------------------------------------------|
|----------------------------------------------------|

|----------------------------------------------------------------|
|--355553----577b8r7---8p5-58p5-58p5-58p5-510p7-710p7-710b12r10--|
|--------42---------7-----7----7----7----7-----9-----9-----------|
|----------------------------------------------------------------|
|----------------------------------------------------------------|
|----------------------------------------------------------------|

And thats it easy peasy! just join in with the other guitar and finish this epic song :)

rate! and all comments welcome :)

Cheers for checking it out

Take Back The Night – Captain Sparklez chords V2

 Hey! Carp (aka Chris) here. :P I did this real quick for the CaptainSparklez fans. 
I made this as simple as I can, so enjoy. If you think any changes should be made, 
feel free to comment. Cheers.

Website: http://www.tryhardninja.com/
Youtube: http://www.youtube.com/user/TryHardNinja
iTunes: https://itunes.apple.com/us/artist/tryhardninja/id429929192

----

Capo I
Key: Am (for those who enjoy soloing)
Chords used:  Am F C G 

----

Verse I
 Am F C G 
Closet full of secrets and skeletons awakes but nothing's true
 Am F C G 
I used to own a castle now it's boxes that I have to move 
 Am F C G 
Right here in the darkness there's nothing left for me to do
 Am F C 
It's easier to run away but today
 G 
Today we got to

Chorus
 Am F           
Cast the shadows out from sight
 C G 
A final stand a shouting cry
 Am F 
All the wrongs now turned to right
 C G 
So fight the past
 Am F  
Take back the night
 C G 
And call upon the torch tonight
 Am F 
To bring out all the ghosts to light 
 C G 
Because at last we have to go it's time
( G )
To take back the night

Verse II
 Am F C G 
Bridges burned and broken on different sides we start anew
 Am F C G 
Being chased by monsters to face head on or be consumed
 Am F C G 
Reaching out for something grasping on to nothing to lose
 Am F C     
Paybacks left too long unpaid but today
 G 
Today we got to

Chorus
 Am F           
Cast the shadows out from sight
 C G 
A final stand a shouting cry
 Am F 
All the wrongs now turned to right
 C G 
So fight the past
 Am F  
Take back the night
 C G 
And call upon the torch tonight
 Am F 
To bring out all the ghosts to light 
 C G 
Because at last we have to go it's time
( G )
To take back the night

Instrumental ~ (Just solo like a baws in the key of Am)

 G 
(To take back the night x3) [during instrumental - if you want to play it]

 C G 
So fight the past
 Am F 
Take back the night
 Am F 
Take back the night
 G 
To take back the night

(Woah-oh-oh)

 G 
To take back the night

(Woah-oh-oh)


Chorus (2nd Half)
 C G 
And call upon the torch tonight
 Am F 
To bring out all the ghosts to light 
 C G 
Because at last we have to go it's time
( G )
To take back the night


INSTRUMENTAL!! : D  SOLO! : D Am F 
Take back the night
 Am F 
Take back the night
 G 
To take back the night

(Woah-oh-oh)

 G 
To take back the night

(Woah-oh-oh)

~~~~ END ~~~~

Enjoy! :)

Warning Sign Chords – Travis

 Song  : Warning Sign
Artist: Travis
Album : Where You Stand
Tabber: Nick Morrison

(listen for strumming patterns)

No Capo

Chords Used:

 Em    = 022000
 G      = 320033
 D      = XX0232
 Am     = 002210


Great album, great song, enjoy!

Intro:  Em  (picking)

Heeeyyyyy x2
 G D Am G D G 
In the middle of the night I hear you
 D 
Talking in your sleep the same old story
 Am G D 
All I know it's not me you've been talking to

 G 
All the wishes of the joy and wonder
 D 
Sleeping with the fishes six feet under
 Am G D 
All I want, can't be done, lock without a key

 Am D G 
Ooohhh Oooahhh Where you goin' now?

 G D Am                    
Don't let your heart run out on me
                      G D 
Don't set the horses free
 G D Am 
We never made it on the line
                   G D 
No time no warning sign

 G 
In the middle of the day I find you
 D 
Turning round the tables and turning
 Am G D 
Off your mind, in rewind, you can find a silent night

 G 
All the people I have on the ground
 D 
Burning pages and their spinning heads
 Am G D 
Is something wrong, in their lives, we need paradise 

 Am D G 
Ooohhh Oooahhh Where you goin' wrong?

 G D Am                    
Don't let your heart run out on me
                      G D 
Don't set the horses free
 G D Am 
We never made it on the line
                   G D 
No time no warning sign

 G Am                                    
Eyyyyy Where you goin' wrong?
                             Em 
Where you goin' wrong? Where you goin' wrong?
 G Am                                    
Eyyyyy Where you goin' wrong?
                             Em 
Where you goin' wrong? Where you goin' wrong?

 G D Am                    
Don't let your heart run out on me
                      G D 
Don't set the horses free
 G D Am 
We never made it on the line
                   G D 
No time no warning sign

 G D Am                    
Don't let your heart run out on me
                      G D 
Don't set the horses free
 G D Am 
We never made it on the line
                   G D 
No time no warning sign



Any mistakes (probably in the lyrics) email me: nbm953@uowmail.edu.au

Cheers,

Nick Morrison

Toy Soldiers solo Tabs by Martika

 Make sure to transpose the solo half a step up if you're playing the Dm version, 
this is for the normal version which is in C#m

Here's the solo, I haven't seen any tabs of it anywhere around:
             
e|--------------------------------------------------------------------------|
B|--------------------------------------12-----------------------7s12-16-19-|
G|-------------4s8-9-11-11b13~--b13-b13----11~-----9-11-9s8-----------------|
D|-----------------------------------------------9----------9~-9~-----------|
A|--------------------------------------------------------------------------|
E|--------------------------------------------------------------------------|

e|---------------------------------12-12h14-12-11---------------------------|
B|-19b21~--21b24~---24r21-19~----12----------------12~-12~--12~-------------|
G|--------------------------------------------------------------------------|
D|--------------------------------------------------------------------------|
A|--------------------------------------------------------------------------|
E|--------------------------------------------------------------------------|

You should listen to the song to understand the rhythm of the tab
Please rate and comment if you think there are any mistakes
Cheers :)

Live Like A Warrior Acoustic Tabs by Matisyahu

 The acoustic version as featured on Spark Seeker: Acoustic Sessions uses different 
chords as the original version. This should be 100% right, I watched D.P. perform this in 
this video http://www.youtube.com/watch?v=uS6SJ5s5wWg.

Capo 6th Fret

Verse
e: 0---0---0---3-|
B: 1---6---1---0-|
G: 0---0---0---0-|
D: 2---7---2---0-|
A: 3---8---0---2-|
E: 0---0---0---3-|

Chorus
e: 0---0---3---0-|
B: 6---1---0---1-|
G: 0---0---0---0-|
D: 7---2---0---2-|
A: 8---3---2---0-|
E: 0---0---3---0-|

Sorry I don't know the bridge/interlude that's featured in the video, but this should 
take you far! Cheers!

Far Away Blues Chords – Joe Purdy

 Artist: Joe Purdy
Song: Far Away Blues
Album: Julie Blue
tabbed by: necriononguitar


. = Palm-Muted
~ = hold note
^ = vibrate
p = pull off
h = hammer on
/ = slide up
\ = slide down
* = harmonic


Tuning: Half-Step Down

No Capo


The chords are super simple. Try hitting the bass note on the one and then
 follow up with a strum for the high notes.
He plays the G on the first string sometimes, mainly during the interlude after the chorus.
Pull off the B string during the Am in the chorus and do some picking.


Chords:
       C Em F F *   G Am 
E----(3)-(3)-(3)-----(3)----------------|
B-----1---1---1---1---0---1p0-----------|
G-----0---0---2---2---0---2-------------|
D-----x---2---3---3---0---2-------------|
A-----3-----------x---x---0-------------|
E-----------------1---3-----------------|


 C Em F G C Em F G C F G 
  Oh the weather ain't so fine today
 C F G 
  Darling it's just right for me
 F *                  G Am 
  'Cause I've been thinking of you
 F *           G C 
  Got these far away blues


 C Em F G C Em F G C F G 
  Oh the water's mad
 C F G 
  She's been fighting with the wind
 F *            G Am 
   I've been thinkin' of you
 F *            G C 
   Got these far away blues


 C Em F G C Em F G C F G 
  So please don't take me the wrong way
 C F G 
  Things are fine and people are great, but 
 F *            G Am 
   I've been thinkin' of you
 F *            G C Am 
   Got these far away blues
 F *            G C  (pick, fade)
   Got these far away blues




and that's it! I hope this helped, please rate, comment and correct me!

Cheers...

White Doves Chords – Starsailor

 -------------------------------------------------------------------------------
                                                      White Dove - Starsailor
-------------------------------------------------------------------------------
Tabbed by: Hurley
E-mail: tiberiusmagnus27@hotmail.com

Tuning:Standard


Note: play version of G6 that has your ring finger on the B-string, 3rd fret.

Intro   Fmaj7/C C/G   
 
Verse: 
 Fmaj7/C C/G  
Found us in a small café, happened to be out that day, to watch it go by. 
 Fmaj7/C C/G              
It came to pass that we shall be, early signs of victory from out of their eyes        

 Fmaj7/C C/G           
If you lay your guns to ground, feel the weight of coming down, fall from 
your mind. 
 Fmaj7/C C/G              
Something that I ought to say to take away the pain of day, I'm leading the 
blind. 

Chorus
 C/G Cmaj7 G6 A F G C                      
Old man drifting won't you carry me out of this place. 

 Fmaj /7                                                  C/G                    
Found us in a small café, happened to be out that day, to write it all down. 
 Fmaj /7                                                         C/G             
As they fell upon the floor, thought of all that's gone before, they went to 
the ground.  

Chorus/Outro
 C/G Cmaj7 G6 A F G C                      
Old man drifting won't you carry me out of this place. 

     C/G Cmaj7 G6 A F Fm C               
The white dove is rising to the sound of your god given grace 
 F Fm C/G  
To the sound of your god given grace.

Cheers! 

Why Do You Smile Chords – Lovely Rita

 INTRO :
 F#m Bm C# 

VERSE 1

        F#m Bm C# 
She told me my love, 
        F#m Bm C# 
we'll never die
         F#m Bm C# F#m Bm C# 
She told me life's quite nice long as you got both your feet on the ground
        F#m Bm C# 
She told me my boy
        F#m Bm C# 
Why would I lie?
         F#m Bm C# F#m Bm C# 
Look on the bright side, it's no big deal you'll see dry your eyes

 F#m Bm C# C# 

CHORUS
 A E D E 
Why do you smile, all the time?
 A E D E 
Why can't I laugh like you can?
 A E D E 
Oula-la-la, Oula-la-la, Oula-la-la, Oula-la-la
 A E D E 
Oula-la-la, Oula-la-la, Oula-la-la, Oula-la-la

VERSE 2
 F#m Bm C# F#m Bm C# 
She picks me up
        F#m Bm C# 
When they put me down
         F#m Bm C# F#m Bm C# 
She cheers me up while my many dreams and the world around me collide
        F#m Bm C# 
She knows the secret
        F#m Bm C# 
To please her man
         F#m Bm C# F#m Bm C# 
She's got the knack of turning tears into radiant smiles

 F#m Bm C# C# 

CHORUS
 A E D E 
Why do you smile, all the time?
 A E D E 
Why can't I laugh like you can?
 A E D E 
Oula-la-la, Oula-la-la, Oula-la-la, Oula-la-la
 A E D E 
Oula-la-la, Oula-la-la, Oula-la-la, Oula-la-la

BRIDGE

 E 
Why does she smile, why can't I laugh like she can?
 E G 
She sees the sunshine when all I see's the clouds
 E 
She keeps on saying things cannot be that bad
 E D 
She always knows how to convey the right vibe

CHORUS

 A E D E 
Oula-la-la, Oula-la-la, Oula-la-la, Oula-la-la

Under A Violet Moon Chords – Blackmores Night V2

 C#m B 
Dancing to the feel of the drum 
 C#m B 
Leave this world be-hind
 C#m B 
We'll have a drink and toast to ourselves
 A B C#m 
Under a Violet Moon 

 C#m B 
Tudor Rose with her hair in curls 
 C#m B 
Will make you turn and stare 
 C#m B 
Try to steal a kiss at the bridge 
 A B C#m 
Under a Violet Moon

 C#m F#m B 
Raise your hats and your glasses too
 B C#m 
We will dance the whole night through
 A E/G# F#m C#m 
We're going back to a time we knew
 C#m G# C#m 
Under a Violet Moon

 C#m B 
Cheers to the Knights and days of old 
 C#m B 
The beggars and the thieves 
 C#m B 
Living in an enchanted wood 
 A B C#m 
Under a Violet moon 

 C#m B 
Fortune teller what do you see 
 C#m B 
Future in a card 
 C#m B 
Share your secrets tell them to me 
 A B C#m 
Under a Violet Moon

 C#m F#m B 
Raise your hats and your glasses too
 B C#m 
We will dance the whole night through
 A E/G# F#m C#m 
We're going back to a time we knew
 C#m G# C#m 
Under a Violet Moon
 C#m F#m B 
Raise your hats and your glasses too
 B C#m 
We will dance the whole night through
 A E/G# F#m C#m 
We're going back to a time we knew
 C#m G# C#m 
Under a Violet Moon

 E B C#m B G# E B C#m B C#m F#m E B G# C#m F#m E B G# C#m C#m B 
Close your eyes and lose yourself 
 C#m B 
In a medieval mood 
 C#m B 
Taste the treasures and sing the tunes
 A B C#m 
Under a Violet Moon

 C#m B 
Tis my delight on a shiny night
 C#m B 
the seasons of a year 
 C#m B 
To keep the lanterns burning bright
 A B C#m 
Under a Violet Moon

 C#m F#m B 
Raise your hats and your glasses too
 B C#m 
We will dance the whole night through
 A E/G# F#m C#m 
We're going back to a time we knew
 C#m G# C#m 
Under a Violet Moon
 C#m F#m B 
Raise your hats and your glasses too
 B C#m 
We will dance the whole night through
 A E/G# F#m C#m 
We're going back to a time we knew
 C#m G# C#m 
Under a Violet Moon

 C#m F#m B C#m A E/G# F#m C#m G# C#m F#m B C#m A E/G# F#m C#m G#</s

The One You Feed Tabs by Crown The Empire

 -------------------------------------------------------------------------------
                             The One You Feed - Crown the Empire
-------------------------------------------------------------------------------
Tabbed by: Adam Guion
E-mail: AdamGuion@Gmail.com

Tuning: Drop B
So maybe it's just me, but I don't really hear a "lead" guitar in this song.
I suppose somebody could transpose the synth or piano, but that person isn't
me.lol Real easy song with one of the catchiest choruses on the album. Have 
jamming out to this one and cheers! 

Intro
C#|---------------------------------------------------------------------------|
G#|---------------------------------------------------------------------------|
E |---------------------------------------------------------------------------|
B |---------------------------------------------------------------------------|
F#|-00-0-0-0000-0000-00-0-0-0000-000-88-8-8-8888-888877-7-7-7777-141414-------|
B |-00-0-0-0000-0000-00-0-0-0000-000-88-8-8-8888-888877-7-7-7777-141414-------|

Interlude

Chorus
C#|---------------------------------------------------------------------------|
G#|---------------------------------------------------------------------------|
E |---------------------------------------------------------------------------|
B |--0-0-0-0-0-0------8-8-8-8-8-8-----10-10-10-10-10-10-----5-5-5-5-5-5-------|
F#|--0-0-0-0-0-0-x2---8-8-8-8-8-8-x2--10-10-10-10-10-10-x2--5-5-5-5-5-5-x2----|
B |--0-0-0-0-0-0------8-8-8-8-8-8-----10-10-10-10-10-10-----5-5-5-5-5-5-------|

Re-Intro
C#|---------------------------------------------------------------------------|
G#|---------------------------------------------------------------------------|
E |---------------------------------------------------------------------------|
B |---------------------------------------------------------------------------|
F#|-00-0-0-0000-0000-00-0-0-0000-000-88-8-8-8888-888877-7-7-7777-141414-------|
B |-00-0-0-0000-0000-00-0-0-0000-000-88-8-8-8888-888877-7-7-7777-141414-------|

Verse: This is the only "difficult" part. Just listen closely and you'll get it. 
C#|---------------------------------------------------------------------------|
G#|---------------------------------------------------------------------------|
E |---------------------------------------------------------------------------|
B |---------------------------------------------------------------------------|
F#|00-0-0---0-0000-1--000-00---00-0-0-0-12/-000-00-00-5555--------------------|
B |00-0-0---0-0000-1--000-00---00-0-0-0-12/-000-00-00------8888---------------|

C#|---------------------------------------------------------------------------|
G#|---------------------------------------------------------------------------|
E |---------------------------------------------------------------------------|
B |----------------------------0-------0--------------------------------------|
F#|00-0-0---0000-000-00-000--000-00-00-0--------------------------------------|
B |00-0-0---0000-000-00-111--000-00-00-0--------------------------------------|

Chorus
The first time it's the normal chorus, the second time it's this  v
C#|---------------------------------------------------------------------------|
G#|---------------------------------------------------------------------------|
E |---------------------------------------------------------------------------|
B |--0-0-0-0-0-0------8-8-8-8-8-8-----10-10-10-10-10-10-----7-7-7-7-7-7-------|
F#|--0-0-0-0-0-0-x2---8-8-8-8-8-8-x2--10-10-10-10-10-10-x2--5-5-5-5-5-5-x2----|
B |--0-0-0-0-0-0------8-8-8-8-8-8-----10-10-10-10-10-10-----------------------|


Breakdown 1
C#|---------------------------------------------------------------------------|
G#|---------------------------------------------------------------------------|
E |---------------------------------------------------------------------------|
B |---------------------------------

Smoke And Mirrors Acoustic Tabs by The Color Morale

 -------------------------------------------------------------------------------
                             SMOKE AND MIRRORS ACOUSTIC - The Color Morale
-------------------------------------------------------------------------------
Tabbed by: grizzlyangus
E-mail: acampbell4396@gmail.com

This is the live acoustic version Garret and Devin did for Hot Topic.. here's the link 
for the strum pattern and video itself. http://www.youtube.com/watch?v=tFI3de0yfbI

Cheers :)

Tuning: Standard (Capo 3)

e|--0------x----x----x----x-----0----------------------------------------------------|
B|--1------x----x----x----x-----1----------------------------------------------------|
G|--2------x----x----x----x-----2----------------------------------------------------|
D|--2------3----2----3----2-----2----------------------------------------------------|
A|--0------1----1----1----1-----0----------------------------------------------------|
E|--0------x----x----x----x-----0----------------------------------------------------|
 (Repeat four times)


e|--1---1---3---5----------------------------------------------------------------|
B|--1---1---3---5----------------------------------------------------------------|
G|--1---1---3---5----------------------------------------------------------------|
D|--3---3---5---7----------------------------------------------------------------|
A|--3---3---5---7----------------------------------------------------------------|
E|--1---0---3---5----------------------------------------------------------------|
(Each note played three times) also, you'll be playing this sequence twice before the chorus

Chorus
e|--0----0----0----0----0----0-----------------------------------------------------|
B|--1----1----1----1----1----1-----------------------------------------------------|
G|--2----2----2----2----2----0-----------------------------------------------------|
D|--2----3----2----0----3----2-----------------------------------------------------|
A|--0----3----0----2----3----0-----------------------------------------------------|
E|--0----0----0----x----0----0-----------------------------------------------------|

2nd Verse
e|--0------x----x----x----x-----0----------------------------------------------------|
B|--1------x----x----x----x-----1----------------------------------------------------|
G|--2------x----x----x----x-----2----------------------------------------------------|
D|--2------3----2----3----2-----2----------------------------------------------------|
A|--0------1----1----1----1-----0----------------------------------------------------|
E|--0------x----x----x----x-----0----------------------------------------------------|
 (Repeat four times)

e|------------------------------1--------------------------------------------------|
B|-------1-------1------1-------1--------------------------------------------------|
G|----2--------2------2---------2--------------------------------------------------|
D|------------------------------3--------------------------------------------------|
A|--0-------2-------3-----------3--------------------------------------------------|
E|--------------------------00--1--------------------------------------------------|
(Also repeat four times)

e|--3----5----1------------x--x--x---------------------------------------------------|
B|--3----5----1------------x--x--x---------------------------------------------------|
G|--3----5----1------------x--x--x---------------------------------------------------|
D|--5----7----3------------x--x--x---------------------------------------------------|
A|--5----7----3------------x--x--x---------------------------------------------------|
E|--3----5----1------------x--x--x---------------------------------------------------|
(Repeat two times)

Chorus
e|--0----0----0----0----0----0-----------------------------------------------------|
B|--1----1----1----1----1----1----------------