Tag: Chord Progression

Whatcha Gonna Do About It solo Tabs by Small Faces

 The Chord progression for this whole song is just E, A, D, A. But This is the tab for 
the little riffs whilst Steve sings.
I've put the tab for each little lick above the lyric (or tried to line it up).
Long Live Steve Marriott the greatest blue eyed soul singer of all time, and long live 
the Small Faces. C'mon children.




Intro
E------------------------------------------------------------------------|
B------------------------------------------------------------------------|
G---/16-14---------------------------------------------------------------|
D------------17-14-------------------------------------------------------|
A------------------------------------------------------------------------|
E------------------------------------------------------------------------|



1st CHORUS
E------------------------------------------------------------------------------------|
B------------------------17----------------------------------------------------------|
G----------------------------14b------------------------------------/16-14-----------|
D--------------------------------------------------------------------------17-14-----|
A------------------------------------------------------------------------------------|
E------------------------------------------------------------------------------------|
What'cha gonna do about it - Oh Yeah,   Tell the truth, She's so nice


2nd Verse
E--------------------------------------------------------|
B---------------------------17---------------------------|
G------------------14--h16-----------X4------------------|
D--------------------------------------------------------|
A--------------------------------------------------------|
E--------------------------------------------------------|
I want you to come whenever I call you

E------------------------------------------------------|
B------------------------------------------------------|
G---------------------------/16-14---------------------|
D------------------------------------17-14-------------|
A------------------------------------------------------|
E------------------------------------------------------|
And let me walk you home at night


SOLO
E---17bu-17bd--15---------------------------------------------------------------|
B-----------------------17-------------------------17---------------------------|
G--------------------------14bu--14bu----------------14b------------------------|
D--------------------------------------------17--14-------------17--14--17--14--|
A-------------------------------------------------------------------------------|
E-------------------------------------------------------------------------------|

E------------------------------|
B------------------------------|
G---14p--12-----14-------------|X2
D------------14----------------|
A------------------------------|
E------------------------------|

Cant Keep It Inside Tabs by Benedict Cumberbatch

 -----------------------------------------------------------------------------
 Can't Keep It Inside - Benedict Cumberbatch, August: Osage County Soundtrack
-----------------------------------------------------------------------------
: A.C. Morris
 acmorris1991

Capo on 3rd fret

Tuning:
Tune the low E string up one half step to F and then don't worry about barring the
F chords - makes it a bit easier. (So, F A D G B e)
All chord positions standard

Basic Chord Progression:

Intro: C (x4)
Verse: F G C C (x2)
       E E F Am
       C F G C

Picking as I've worked out:

Intro:
 C
e|----------------|----------------|----------------|----------------|
B|1--------------0|1--------------0|1--------------0|1--------------0|
G|0---0---0---0---|0---0---0---0---|0---0---0---0---|0---0---0---0---|
D|----2---2---2---|----2---2---2---|----2---2---2---|----2---2---2---|
A|3---------------|3---------------|3---------------|3---------------|
F|----------------|----------------|----------------|----------------|

Verses:
 F                G                C
e|1---------------|3---------------|0---------------|----------------|
B|1--------------1|3--------------3|1--------------0|1--------------0|
G|2---2---2---2---|0---0---0---0---|0---0---0---0---|0---0---0---0---|  x2
D|----0---0---0---|----0---0---0---|----2---2---2---|----2---2---2---|
A|----------------|----------------|3---------------|3---------------|
F|0---------------|2---------------|----------------|----------------|

 I've............. man............. words.............................

 Nothing.......... say............. heard.............................


  E                                F         G       Am
e|0---------------|0---------------|1--------3-------|0---------------|----------------|
B|0--------------0|0--------------0|1------1-3------3|1--------------0|1-------------0-|
G|1---1---1---1---|1---1---1---1---|2---2----0---0---|2---2---2---2---|2---2---2---2---|
D|----2---2---2---|----2---2---2---|----0--------0---|----2---2---2---|----2---2---2---|
A|2---------------|2---------------|-----------------|0---------------|0---------------|
F|----------------|----------------|0--------2-------|----------------|----------------|

I'll.............. love............ rest.... of my... life.............................


 C                F         G       C
e|0---------------|1--------3-------|0---------------|----------------|
B|1--------------0|1------1-3------3|1--------------0|1---------------|
G|0---0---0---0---|2---2----0---0---|0---0---0---0---|0---0---0---0---|
D|----2---2---2---|----0--------0---|----2---2---2---|----2---2---2---|
A|3---------------|-----------------|3---------------|3---------------|
F|----------------|0--------2-------|----------------|----------------|

 feeling........... can't... it..... inside............................

                                         e|
                                         B|1
Last time: repeat last line and end on:  G|0
                                         D|
                                         A|3
                                         E|


      F                 G           C     C
Well, I've never been a man of many words

            F             G                    C     C
And there's nothing I can say that you haven't heard

E                  E                   F  G  Am
 But I'll sing you love songs 'til the day I die

              C          F          G    C    C
Because, this feeling, I can't keep it inside



            F                  G                   C   C
I'll sing a sweet serenade whenever you're feeling sad

      F            G                      C    C
And a lullaby each night before you go to bed

E             E           F    G       Am
 I'll sing to you for the rest of your life

            C          F          G    C     C
The way

Wet Road Chords – Scout Niblett

         -------------------------------------------------------------------------------
                            Wet Road by Scout Niblett
-------------------------------------------------------------------------------
: Scott H.

From "Sweet Heart Fever" (2001). Easy song, same chord progression throughout.

Tuning: EADGBE


Intro:  C Am Em C Am Em 
I walk behind you

 C Am Em 
So I can see you 

 C Am Em 
Move the way you do, do

 C Am Em 
Move the way you do


 C Am Em 
Don't you know just to play with what you're given?

 C Am Em 
Don't you know just to play with what you're given?

 C Am Em 
Care taker for the only one to believe in


Wet road paradise
Wet roads today
Wet roads on the way
To your house again

Don't you know just to play with what you're given?
Don't you know just to play with what you're given?
Care taker for the only one to believe in

You were already captured
You were already loved 
i just wanted to stand with you
In our space again


It's only for a little while
It's only for a little while

Don't you know just to play with what you're given?
Don't you know just to play with what you're given?
Care taker for the only one to believe in

Fierce play gets you everywhere
Fierce play gets you everywhere 

Love To Get Used Tabs by Matt Pond Pa

 Song: Love To Get Used
Artist: Matt Pond
 The Lives Inside the Lines in Your Hand
: Patrick Gamache

This song is a little funny, and I still am having some trouble getting one
guitar to sound like the studio version because of how many guitar layers 
there are, plus the synthesizer. With that warning, unless you are right on 
time, the song will sound pretty funny. That said, there are several decent 
videos out there of this song, and that is how I got the chords. 

Capo 5

Em  |022000|
G   |320003|
D   |xx0232|
C   |x32010|
C5  |x355xx|
G5  |355xxx|
Am7 |x02010|


Main Riff

  Em      G       D       G       Em      G       C       
e|--------------------------------------------------------------------------------|
B|--0h3p0-----0-----0h3p0-----0-----0h3p0-----0----1--p--0--0------1----0--1--0---|
G|--------0-2-------------0-2-------------0-2-------------------------------------|
D|--------------------------------------------------------------------------------|
A|--------------------------------------------------------------------------------|
E|--------------------------------------------------------------------------------|
For the verses, you play the above chord progression with exactly the same rhythm.


Fill for lead guitar during verses
e|------0--------|
B|--3-------3----|
G|4---4-------4--|
D|---------------|
A|---------------|
E|---------------|

Chorus 

C5               G5
   Black bird,     from the blue
G5            C5
   I give my love to get used
C5             G5
   High hawks    come true
G5                C5
   You give your love to get used

Note: when Matt plays this live, he uses a D chord in the refrain instead of 
that second G, but honestly I think it sounds better with just the G5 and C5 
chords. 

Bridge

C                   D
   Let's hang on to abandon
G                       C
   Let's hope we lose control
Em                  D
   To be out in the open, baby
G                    C
   And let go of the ropes
C*
   Nothing into nothing

*There is a weird mix of an Em chord and a C chord here, depending on which
version you listen to. 

+++

Good luck, folks! 

Also, if anyone can figure out what that weird electric guitar is doing in 
the studio version, let me know. It has been driving me crazy trying to 
figure that out. 

Hello Chords – Karmin V2

 Hello by Karmin
email: smexxy@rocketmail.com

This sounds just about right. If it isn't, let me know. Thank you.

Capo on 5

Chords used (relative to capo):
 Am  -  G  -  Em  -  D Am 
I'ma do it, do it
 G 
Like I wanna do it
 Em D 
You gon' know me like, you ain't never know me before
 Am 
I'ma bring it, bring it
 G 
I'ma give it, give it
 Em D 
You gon' love me like you ain't loved nobody before
 Am 
Hello, hello, hello, hello
 G 
Hello, hello, hello, hello
 Em 
Hello, hello, hello, hello
 D 
You gon' love me like you ain't loved nobody before

 Am 
Too nice, too clean
 G 
Too white, too green
 Em 
Little haters, big dreams
 D 
I don't care what you think about me
 Am G Em        
Two faced, old friends, told me, the end was near, forget them
 D 
See a lot of things changed since then
 Am 
Don't they know that I came from Nebraska
 G 
Am I gonna quit? Nice of you to ask
 Em 
But momma told me go and chase what you after
 D 
I'm on track, so I'm gonna rap faster
 Am 
Imma break it down for you and get a little deeper
 G 
Slayin' on it, prayin' on it like a grim reaper
 Em 
Running the thermometer, and yep I got a fever
 D 
Hi, konichiwa, are you a believer?

[Chord progression is the same all throughout the song. Enjoy!]


 Am - G - Em - D 
I'ma do it, do it
Like I wanna do it
You gon' know me like, you ain't never known me before
I'ma bring it, bring it
I'ma give it, give it
You gon' love me like you ain't loved nobody before
Hello, hello, hello, hello
Hello, hello, hello, hello
Hello, hello, hello, hello
You gon' love me like you ain't loved nobody before


 Am - G - Em - D 
Too hard, too soft, too rough, too posh
Lemme do, what I want
Lace it up, baby tie it in a knot, uh
Race track, two legs, Hollywood, big break
Suck it up, intake
Let me tell ya how it happened real quick ohh
Touchdown in the middle of the city
Mass Ave. street, jammed up to Newbury
Million dollar party
Now tell me who you wearing
Lots of new hand held hype you can carry
Imma break it down for you and get a lil' deeper
Slayin' on it, prayin' on it like a grim reaper
Running on thermometer, and yep I got a fever
Hi, konichiwa, very nice to meet ya


 Am - G - Em - D 
I'ma do it, do it
Like I wanna do it
You gon' know me like, you ain't never known me before
I'ma bring it, bring it
I'ma give it, give it
You gon' love me like you ain't loved nobody before
Hello, hello, hello, hello
Hello, hello, hello, hello
Hello, hello, hello, hello
You gon' love me like you ain't loved nobody before


 Am - G - Em - D 
Let me keep going, baby till I'm dead and gone
That's my only wish
And if you don't know I'll be singing my song
I got a lot to give


 Am - G - Em - D 
I'ma do it, do it
Like I wanna do it
You gon' know me like, you ain't never known me before
I'ma bring it, bring it
I'ma give it, give it
You gon' love me like you ain't loved nobody before
Hello, hello, hello, hello
Hello, hello, hello, hello
Hello, hello, hello, hello
You gon' love me like you ain't loved nobody before


 Am - G - Em - D 
Hello, hello, hello, hello
Hello, hello, hello, hello
Hello, hello, hello, hello
You gon' love me like you ain't loved n

Cop Car Chords – Keith Urban V2

 3rd tab!  Easy song, chord progression is  F ,  C ,  G   - When you play the second  C  you 
hammer on the 2nd and 3rd Fret with your middle and ring finger.

Verse 1

 F C 
We drove right past
 C G 
That no trespassing sign
 F C 
We sat on the tailgate
 C G 
And watched the planes take off
 F C 
We thought we had all night
                         C 
There was no need to rush
                  G 
That's when those cops
              F 
Came pulling up
            C 
And I thought
 C G 
Man, ain't this some shh


Bridge

                       F C 
Your daddy's gonna kill me
       C G 
But if I survive tonight
                     F C 
I wouldn't change one thing
         C 
Baby, yeah
                   G 
I know it sounds crazy


Chorus

                F 
But there was somethin bout the way
 C 
The blue lights were shinin
 C G 
Bringing out the freedom in your eyes
         F 
I was too busy watching you
 C 
Going wild child
         C G 
To be worried about going to jail

You were thinking that
 F 
Running for it
 C 
Would make a good story
     C G 
I was thinking you were crazy as hell

And you were so
 F 
Innocent
         C 
But you were stealing my heart
   C G F - C - C - G  x2
I fell in love in the back of a cop car


Verse 2

 F C 
Man, they weren't playin
 C G 
They sure threw those cuffs on quick
 F C 
You tried to sweet talk 'em
 C G 
They didn't fall for it, but I did
 F C 
You were on the left
              C 
I was on the right
                  G 
I knew you didn't smoke
                         F 
When you asked him for a light
        C 
And I laughed
       C G 
He got mad and slammed the door


Bridge

                       F C 
Your daddy's gonna kill me
       C G 
But if I survive tonight
                     F C 
I wouldn't change one thing
         C 
Baby, yeah
                   G 
I know it sounds crazy


Chorus

                F 
But there was somethin bout the way
 C 
The blue lights were shinin
 C G 
Bringing out the freedom in your eyes
         F 
I was too busy watching you
 C 
Going wild child
         C G 
To be worried about going to jail

You were thinking that
 F 
Running for it
 C 
Would make a good story
     C G 
I was thinking you were crazy as hell

And you were so
 F 
Innocent
         C 
But you were stealing my heart
   C G F - C - C - G  x2
I fell in love in the back of a cop car


Refrain

 F 
Side by side
         C 
And locked in tight
            C 
They were taking their time
         G 
But we didn't mind
 F 
We talked and we laughed
 C 
We sat real close
 

Out Last Night Chords – Kenny Chesney V5

 -----------------------------------------------------------------------------
                             Out Last Night - Kenny Chesney
-----------------------------------------------------------------------------

Tabbed by: Country Bass
E-mail: aaron.white8@Education.nsw.gov.au

Tuning: Standard

Capo 1st - Kenny's version
Capo 3rd - Songwriters version

But play around and put the capo where you feel sounds right


Verse Chord Progression

e|--3--3--3--3--3--3--3-3-3-3-3--|
B|--3--3--3--3--3--3--3-3-3-3-3--|
G|-------------------------------|
D|------------------------2-2----|
A|--2--2--2--2--2--2--2-2-3-3-2--|
E|--3--3--3--3--3--3--3-3-----3--|



  G Cadd9  x4


         G Cadd9 
 We went out last night 
         G Cadd9 
 Like we swore we wouldn't do 
                G Cadd9 
 Drank too much beer last night 
       G Cadd9 
 A lot more than we wanted to 


           D G 
 There were girls from Argentina and Arkansas
  C Cadd9 
 Maine, Alabama and Panama 
  D G 
 All mixed together and having a ball 


               D G Cadd9 
 Yeah, we went out last night 
 One thing started leading to another 
  D G Cadd9 
 Out last night 
 Hittin' on everybody and their mother 

  D G 
 There were two karaoke girls drunk on a dare
         C Cadd9 
 Singing "I Got You Babe" by Sonny and Cher 
 Yeah, life was good everywhere 
 We went out last night 


  G Cadd9  x2

                     G Cadd9 
 Well you know I'm a music man 
        G Cadd9 
 I grew up in east Tennessee 
                  G Cadd9 
 Last night I was everything 
        G Cadd9 
 When I got a few drinks in me 

         D G 
 I was a doctor, a lawyer, a senator's son 
  C Cadd9 
 Brad Pitt's brother and a man on the run 
  D G 
 Anything I thought would get the job done 


               D G Cadd9 
 Yeah, we went out last night 
 One thing started leading to another 
  D G Cadd9 
 Out last night 
 Hittin' on everybody and their mother 

            D G 
 There were people doing body shots up on the bar
  C Cadd9  
 Jimmy in a fist fight out by the car 
  D G 
 Everybody was some kind of star 
 When we went out last night 

 
          D                             
 Well the fact that I'm still breathing
            G            
 Means that I must have survived 
     C Cadd9 
 And that I lived to go out with my friends again tonight 



               D G Cadd9 
 Yeah, we went out last night 
 One thing started leading to another 
  D G Cadd9 
 Out last night 
 Hittin' on everybody and their mother 

           D 
 They were dancing on the tables 
     G 
 And howling at the moon 
  C Cadd9 
 Pairing off together and pretty soon 
  D G 
 There was not a sole in sight 
 When we went out last night  

  G Cadd9   x10 (till fade out)


Have Fun

-----------------------------------------------------------------------------

Fingertips Tabs by Keren Ann

 Before starting, I've got to say that I don't know the lyrics, there are not
available on the web (I haven't found them anyway) so I tried to guess and because
I'm french, it would explain why sometimes it has absolutely no sense... So
please, if you know the lyrics, or a part of them, write them in comments and I
will correct this tab. THANXXX !!!

CAPO ON 3rd

I think the main chord progression is something like this, with that kind of way to play 
them :

   Am  Ammaj7  Am7   Am6       F              E
e--------4-----3-----2-----1--------1------0--0-0--|
B--0---------------------------------------2--2-2--|
G----2-----2-----2-----2-----3-3-3----0-1--2--2-2--|
D----2-----2-----2-----2-----2-2-2----2-2--1--1-1--|
A----1-----1-----1-----1-----1-3-1----1-1--0--0-0--|
E----0-----0-----0-----0-------------------0--0-0--|

And for the chorus, there is another guitar playing something like that :

e--5-----5-4-----4-3-----3-2-----2-5--5--5-5---5-5-4--|
B------5-------5-------5-------5---6--6--8-6---3-4-5--|
G----5-------5-------5-------5------------------------|
D-----------------------------------------------------|
A-----------------------------------------------------|
E-----------------------------------------------------|

The other chords used for the bridge and the two last chords are :
F: 133211
F7: 131211
E: 022100
E7: 020100
Am*: 577555
Am6*: 57x57x


Intro: Am  Ammaj7  Am7  Am6  F  E  (x2)

Am  Ammaj7            Am7    Am6
I thought I find the answer
     F                                     E
The flower crowd was inside in and inside out
Am      Ammaj7            Am7     Am6
There's something in the weather
      F                                      E
The purple balls what I'd suppose it's all about

Am   Ammaj7 Am7   Am6
Fingertips, submarine
 F                      E
Hold your lips upon my skin
Am  Ammaj7 Am7 Am6
Babydoll, violin
F               E           Am  Ammaj7  Am7  Am6  F  E
As we fall fireworks begin

Am Ammaj7              Am7    Am6
I thought I heard you whistle
    F                                        E
But I was wrong, it was a song was stoned instead
Am  Ammaj7        Am7      Am6
The loneliness is peaceful
       F                                        E
Though in his head, under the spell, I'm going mad

Am   Ammaj7 Am7   Am6
Fingertips, submarine
 F                      E
Hold your lips upon my skin
Am  Ammaj7 Am7 Am6
Babydoll, violin
F               E       E7
As we fall fireworks begin

F     F7        E                      E7
Handfully, the pick up the pieces and clear all the mess
     F         F7       E                     E7
And too gracefully, we cover each other with kisses and lace
    F          F7         E                   E7
Although painfully, it's all I have left, to never the less
     F                 E                E7 Am  Ammaj7
It would be upset coz you've never fear me yet
     Am7    Am6     F      E
And maybe I better forget

Am  Ammaj7  Am7  Am6  F  E

Am   Ammaj7 Am7   Am6
Fingertips, submarine
 F                      E
Hold your lips upon my skin
Am  Ammaj7 Am7 Am6
Babydoll, violin
F               E       E7
As we fall fireworks begin

Am  Ammaj7  Am7  Am6  F  E

Am   Ammaj7 Am7   Am6
Fingertips, submarine
 F                      E
Hold your lips upon my skin
Am  Ammaj7 Am7 Am6
Babydoll, violin
F               E       E7
As we fall fireworks begin

Am  Ammaj7  Am7  Am6  F  E

Am*  Am6*

Kvelertak intro Tabs by Kvelertak

 (/) Slide Up (v) Vibrato

Chord progression, modify as needed for the rest of the song

E|----------------------------------------------|
B|----------------------------------------------|
G|----------------7--7-------------------7--7---|
D|--9----9--9--9--7--7--5--5----5--5--5--7--7---|
A|--9----9--9--9--5--5--5--5----5--5--5--5--5---|
E|--7----7--7--7--------3--3----3--3--3---------|

------------------------------------------------|
------------------------------------------------|
--------------------7--7----------------7----9--|
---7--7----7--7--7--7--7--5--5----5--5--7----9--|  repeat from start
---7--7----7--7--7--5--5--5--5----5--5--5----7--|
---5--5----5--5--5--------3--3----3--3----------|



Solo over chords

E|---------------------------------------------|
B|---------------------------------------------|
G|---------------------------------------------|
D|-----------7--7--7/9v-----------7--9--9/11v--|
A|------7/9-----------------7/9----------------|
E|--10------------------10---------------------|

-----------------------------------------------|
-----------------------------------------------|
-----------------------------------------------|
----------7-----9/12--9--7--9------------------|
-7--7/9-----9------------------9--7--9--10--9v-|
-----------------------------------------------|

En Haluu Kuolla Tana Yona Chords – Jenni Vartiainen

 En Haluu Kuolla Tänä Yönä - Jenni Vartiainen
(from Seili album)

Tabbed by: AlThOr
E-mail: blind_guardian@live.fr

Key: B major

 B  =   x24442
 D#m  = x68876
 G#m  = 466444
 E  =   x79997 (the open string chord '022100' is OK but a little bit too 
low in this chord progression)

Strumming pattern proposed for one bar: D DU D DU D DU D DU

---

Intro: |  B  |  B D#m  |  G#m  |  G#m E  | x4

( E )      B D#m G#m E 
Pelkään panna silmät kiinni, jos ne eivät aukeekaan
      B D#m G#m E 
Aamulla kuin aina ennen jäisin siihen makaamaan
 B D#m G#m E 
Enkä voisi kättä nostaa, saati pystyy sanomaan


( E )     B D#m G#m E 
Mä en haluu kuolla tänä yönä
       B D#m G#m E 
Mä en haluu kuolla tänä yönä
 
( E )   B D#m G#m E 
Olen kesken, en siis lainkaan valmis täältä poistumaan
       B D#m G#m E 
Juuri kun on meno käynyt elämältä maistumaan
       B D#m G#m E 
Mulla olis yksi toive, yksi pieni pyyntö vaan


       B D#m G#m E 
Mä en haluu kuolla tänä yönä
       B D#m G#m E B 
Mä en haluu kuolla tänä yönä

( B )                       D#m G#m 
Lupaan lukea Raamatun ja raitistun
                             E B 
Jos saan aikaa, se varmasti onnistuu
              D#m G#m E B 
Mut ei tänä yönä
( B )                        D#m G#m 
Jääköön taakseni syntinen entinen
                             E B 
Pystyn muuttumaan vielä, mä tiedän sen
               D#m G#m E B 
Mut ei tänä yönä

( B )                            D#m G#m E 
Annathan siis katsoo vielä, miltä näyttää huominen
         B D#m G#m E 
Niin mä teen mun parhaani, et oisin hyvä ihminen
 B D#m G#m E                  
Tiedän, että kuulet tämän, pyyntöni mun rukouksen

       B D#m G#m E 
Mä en haluu kuolla tänä yönä
       B D#m G#m E 
Mä en haluu kuolla tänä yönä

It Goes Like This Chords – Thomas Rhett V4

 Thomas Rhett - It Goes Like This

Im just correcting some of the chords I've seen. The Am F C G is good but is not 
accurate.  The actual chords are Bm G D A.  This can be seen on his music video for the song.

 
Intro:  Am F  x4

~Verse 1~

 Bm G Bm G 
Hey girl, you make me wanna write a song,
 Bm G Bm G 
Sit you down, I'll sing it to you all night long,
 Bm G Bm G 
I've had a melody in my head since she walked in here and knocked me dead.
 Bm G Bm G 
Yea girl, you make me wanna write a song


~Chorus~

                Bm G D A 
And it goes like ooh, what I wouldn't do
             Bm G D A 
To write my name on your heart, get you wrapped in my arms baby all around you.
                Bm G D A 
And it goes like hey, girl I'm blown away,
        Bm G D A 
Yea it starts with a smile and it ends with an all night long slow kiss,
               Bm G D A 
Yea it goes like this.


~Verse 2~

Same chord progression as verse one.

~Chorus~
Same as before.

~Bridge~

 G A 
Lookin' at you lookin' at me that way,
 G A 
Makes me wanna grab my old guitar and play


~Chorus~
Same as before.

~Outro~

                Bm G Bm G 
And it goes like ooh, and it goes like hey,
                  Bm G 
And it ends with a kiss,
               Bm G 
Yea it goes like this.

Victims Of Love Chords – Joe Lamont V4


VERSE 1:
       C G 
Our hearts have been to battle 
       Am Em 
Our souls have been to war 
        F C Dm G 
We've lost the will to carry on, we don't believe no more 
      C G 
Wasn't it we who said 
             Am Em 
That this could never happen to us 
       F C Dm G7 
How wrong could we be cause baby here we are 


REFRAIN:
  C G Am Em 
Victims of love a broken down affair 
  F C 
So sad to see the debris 
 Dm G 
Scattered everywhere 
 C G Am Em 
Victims of love, I still cannot believe 
  F C 
That we're the victims of love 
 G  -  G7 C 
That we cannot retrieve 


VERSE has the same chord progression it is not that hard


Repeat Refrain 


Bridge: 
  Am G 
Maybe we played it a bit too sure 
 F C 
And everything was hearts and roses 
 Am G 
But fate stepped in and closed the door 
 Bb 
And we were just left standing 
 F 
And we realized the ending 
 G 
Was so near... 

Where do we go from here... 


Message me if you think there are some incorrect chords in there..

Those Crazy Christians Chords – Brad Paisley

 Brad Paisley - Those Crazy Christians

I couldn't find the chords for this song anywhere so I worked it out myself. This 
is my first tab, so any suggestions/corrections are welcome.

Standard Tuning/No Capo

Chord Progression:
 D G D Bm A G A G D Bm A D G D 
Those crazy Christians, I was gonna sleep in today
            Bm A G 
But the church bells woke me up and they’re a half a mile away
                 D G D 
Those crazy Christians, dressed up drivin’ down my street
             Bm A G 
Get their weekly dose of guilt before they head to Applebee’s


         A G 
They pray before they eat and they pray before they snore
         D Bm A 
They pray before a football game and every time they score
   A G 
Every untimely passing, every dear departed soul
      D Bm A 
Is just another good excuse to bake a casserole


Those crazy Christians, go and jump on some airplane
And fly to Africa or Haiti, risk their lives in Jesus’ name
No, they ain’t the late night party kind
They curse the devil’s whiskey while they drink the Savior’s wine

A famous TV preacher has a big affair and then
One tearful confession and he’s born again again
Someone yells hallelujah and they shout and clap and sing
It’s like they can’t wait to forgive someone for just about anything

Those crazy Christians
Instead of being outside on this sunny afternoon
They’re by the bedside of a stranger in a cold hospital room
And every now and then they meet a poor lost soul like me
Who’s not quite sure just who or what or how he ought to be
They march him down the aisle and then the next thing that you know
They dunk him in the water and here comes another one of those crazy Christians

They look to heaven their whole life
And I think what if they’re wrong but what if they’re right
You know it’s funny, much as I’m baffled by it all
If I ever really needed help, well you know who I’d call
Is those crazy Christians

Ashley Kate Riddell – Answers Tabs

 The Chord Progression for the entire song is Em, Cadd7, Gadd7, and Am, so you can 
just hold those down while picking. *=strum once

Intro:

Em              C               G               Am
0----0---0---0--0----0---0---0--0----0---0---0--0----0---0---0--|
2----2---2---2--2----2---2---2--2----2---2---2--2----2---2---2--|
--2----2---2---2--2----2---2---2--2----2---2---2--2----2---2---2|
----------------------------------------------------------------|
----------------------------------------------------------------|
----------------------------------------------------------------|
**Play this through out the whole song until the chords come in**

Verse 1:
The answers you seek so far away.

And then they always say they're going to stay

You thought that you could trust them now they're gone.

The problem is the answer to it all.

Verse 2:
You looked and now you don't like what you saw

The pain it is infecting of us all

And as the problems just keep bearing down

It's like sometimes I just can't hear a sound

Chorus:
Love of mine, don't you cry. I see the pain from the lies
Wipe those tears, from your eyes, I just can't stand the goodbyes.

Em            C              G              Am7
Love of mine, don't you cry. I see the pain from the lies
Em                C               G                  Am7
Wipe those tears, from your eyes, I just can't stand the goodbyes.

   *Em               *C
And as my love comes pouring out,
*G               *G
Sometimes I just scream and shout
  *Em           *C              G
I see that I am just alone with me.
  Em                 C
I once was blind but now I see,
   Em                C
my thinking was just so off key
  G                                    Am7
I can’t believe I thought no one loved me.


*Guitar solo*

*slower*
The answers you seek so far away.

And then they always say they're going to stay

You thought that you could trust them now they're gone.

The problem is the answer to it all.


Ohhh ohhhh ohhhhhh(x4)

My Dove My Lamb Chords – Phosphorescent

 On the record he plays it in G (C/G = G, F = C, G = D), 
but every time I've seen him play this live, 
he's adapted it with the electric and the capo. 
(ex. http://www.youtube.com/watch?v=5s7Fkiip_jY). 
It's the same chord progression with each verse, 
sometimes he vamps the F to C/G a little longer 
to fill in some more "oohs!".

enjoy the song.
(mchernos@gmail.com)


Capo 6, Key of F#
(standard tuning EADGBe)

 C/G F G F C C/G F            
I remember evenings when my dad would sing
 G F C 
Hiding in the hallways, I am listening
 C/G F 
Keeping still my body until it’s borne aloft
 G F C 
Her hair is soft her breath is soft and her name is soft
 C/G F     
And gather me completely in her sighing hands
 C/G G C 
My dove my dove my lamb

 F C/G                

Born with ocean thunder underneath our veins
Lonelier than cows left standing in the rain
Holy when our weight into the waves is tossed
Though ships get lost and fish get lost and names get lost
She will wait to greet me where it meets dry land
My dove my dove my lamb

So be careful of that language some words are stones
They’ll lead you out from town and leave you all alone
Past the mirrored diamond mares that run all night
Where camptown ladies sing that song ‘aw come alright’
But lo they sing it sweetly so I’ll understand
My dove my dove my lamb

Though my sight be near and my way be long
Though the light I chase be disappeared by dawn
I have seen her standing on the roofs at night
I have seen her silver figure bathed and bright
And I have seen her sleeping in the cold white sand
My dove my dove my lamb

So even in these cities where she’s haunting me
Even when my weariness is wanting me
Even when my wickednesses want to breathe
Even in these dirty clubs counting 1-2-3
I will keep a singing til I no more can
My dove my dove my lamb

And later if I’m better I’ll be born again
I’ll pull my newborn body from the thorns and limbs
Finding with my fingers where they’ve torn the page
From some ancient book all gold and worn from age
And writ upon it neatly though in trembling hand
My dove my dove my lamb

Then later in the evening I hear trumpets ring
I stretch out in the dark and I am listening
Studying the sadness in your perfect limbs
Move them under mine until they learn to blend
And I will keep repeating til they understand
My dove my dove my lamb

Pass Me By Chords – R5 V3

 G D Em  
Remember that trip we took in Mexico

 C 
Yeah

 G D Em C 
Hanging with the boys and all your senoritas

   G D Em C 
I never spoke up yeah never said hello

       G D Em        
But I keep on trying to find a way to meet ya

 C 
Yeah

 G D      
I was chilling you were with him

 Em C 
Hooked up by fire

 G        
Now his long gone

 D 
Now I’m solo

 Em 
Now I’ve got my chance

       C 
Now I now got my chance

      G 
Like damn

                D Em  
You can be the one that can mess me up

                C 
You can be the one that can break me

 G 
Damn

                D Em 
All them other girls said they had enough

                C 
You can be the one that take me

 G 
I was solo

 D 
Living YOLO

 Em C 
Till you blew my mind

      G     
Like damn

                D Em 
You can be the one that can mess me up

                 C G 
I can’t let you Can’t let you pass me by

       D Em       
Oh oh  oh oh   oh oh 

   C G 
I can’t let you pass me by

       D Em 
Oh oh  oh oh   Oh oh

   C G 
I can’t let you pass me by

--------------------------------------------

Chord progression continues like that for the entire song

A Love Like War Tabs by All Time Low V3

 -----------------------------------------------------------------------------
                            "A Love like War" All Time Low Feat. Vic Fuentes
-----------------------------------------------------------------------------
Tabbed by: Schmidtington
E-mail:

Tuning:Db, Ab, Db, Gb, Bb, Eb

Intro and Verse:

|---------------------------------------------------------------------------|
|----------------------------2------------------------------2---------------|
|---6666---7---------------2-------4444---6----------------2----------------|
|---XXXX---X----2\\------4---------XXXX---X-----4\\\-----4------------------|
|---4444---5----2\\----------------2222---4-----4\\\------------------------|
|---------------2\\-----------------------------4\\\------------------------|

Chorus (chord progression)
        Db        C         Bb      Eb       F         Ab       
|-------5---------4---------2-----------------------------------------------|
|-------5---------4---------2-----------------------------------------------|
|-------7---------6---------4-----------------------------------------------|
|-------7---------6---------4--------2-------4----------7-------------------|
|-------5---------4---------2--------2-------4----------7-------------------|
|------------------------------------2-------4----------7-------------------|

Post Chorus ("We go together")

|----5555--5-----------------4444--4----------------------------------------|
|----5555--5-----------------4444--4----------------------------------------|
|----7777--7-----------------6666--6----------------------------------------|
|----7777--7---2-xxx--xxx----6666--6---4xxx--xxx----------------------------|
|----5555--5---2-xxx--xxx----4444--4---4xxx--xxx----------------------------|
|--------------2-xxx--xxx--------------4xxx--xxx----------------------------|

(X2)(Second time let last chord ring)

Interlude(Chord Progression)
          Db           C               Bb            Eb       F       Ab
|---------5---------4---------2-------7-------------------------------------|
|---------5---------4---------2-------7-------------------------------------|
|---------7---------6---------4-------9-------------------------------------|
|---------7---------6---------4-------9--------4-------7777---7777----------|
|---------5---------4---------2-------7--------4-------7777---7777----------|
|----------------------------------------------4-------7777---7777----------|

Pick first 4 Chords of interlude



************************************

| /   slide up
| \   slide down
| h   hammer-on
| p   pull-off
| ~   vibrato
| +   harmonic
| x   Mute note
| b   Bend
| pb  Pre-bend
| br  Bend release
| pbr Pre-bend release
| brb Bend release bend

************************************

Head On Chords – Man Man V2

 Single for the new album, On Oni Pond, out September 10th, 2013.

Chord progression is very basic and stays consistent throughout the song.
You can play the bass notes and drop them down easily also, sort of like this:

           G F#/G Em D (riff)
e|-----------------------------------------------------|
B|-----------------------------------------------------|
G|---------------------------------2-------------------|
D|--------0------------2-----0-2-4---------------------|
A|--------2------2-----2-------------------------------|
E|--------3------2-----0-------------------------------|

or do whatever you like to incorporate the riffs and bass parts in.
Anyways, main chords are:

 G Bm Em D    (repeat)

and the organ/synth solo is pretty basic in key, but you can jazz it up a bit
to make it sound like it belongs on guitar.

Support this amazing experimental rock band- 
they don't get enough credit- by buying their album on September 10th! 
And if you ever have the chance, see them live 
they're one of the craziest an awesomest bands ever in that category.

Have fun!

-BrightEyes577



There's a knock at your door
You don't even recognize the stranger
It's you from before
Trying to warn you all about the dangers
There's a hole in your head
At least that's what everybody's guessing
It's why you're always misread
It's why you sleep but you never feel rested
You never get your rest in

Hold onto your heart
Hold it high above flood waters
Hold onto your heart
Never let nobody drag it under
Hold onto your heart
Even when your body's bitter
Hold onto your heart
Never let nobody take it over
Ever it take it over
Ever it take it over from you

There's a call on the phone
You don't even recognize the number
It's an old episode
Of trying to put the lightening on the monster
Of the life you have led
That is always a mess
Are you dreaming of death?
Are there ghosts in your chest?
Are you always so restless?
Yes you are
Is that hard?

Hold onto your heart
Hold it high above flood waters
Hold onto your heart
Never let nobody drag it under
Hold onto your heart
Even when your body's bitter
Hold onto your heart
Never let nobody take it over
Ever it take it over
Ever it take it over from you

Is it all a game of bait and switch your brains
And follow your leaders to hell
Is it all the same vein of insane
As drinking from a poisoned well
And I need new skin for this old skeleton of mine
Cause this one that I'm in has let me down once again over time
And I need new skin for this old skeleton of mine
Cause this one that I'm in has let me down once again over time

Hold onto your heart
Hold it high above flood waters
Hold onto your heart
Never let nobody drag it under
Hold onto your heart
Even when the whole world's bitter
Hold onto your heart
Never let nobody take it over
Ever it take it over
Ever it take it over...
Ever it take it over from yo

Harder Times Chords – Snoop Lion

 D A Bm G 
Look how hard mama work just trying to get by
       D A Bm G 
And enough ghetto youth so they still want no get no bly
       D A Bm G 
Just keep on the hustle ‘cause we have to stay pon the grind
            D A Bm     
Don’t give up on yo dreams ‘cause you know the sun will shine
      G A D 
The sun will shine


Then the same chord progression all throughout the song
  D - A - Bm - G  x3 then  D - A - Bm - G - A - D 

Also there's a little riff that you can play in between the chords during the transition that goes

E-----0-3-2-------|
B-----------------|      
G-----------------|
D-----------------|
A-----------------|
E-----------------|

 and then there's another one that goes


E-------3-2-------|
B-----3-----------|      
G-----------------|
D-----------------|
A-----------------|
E-----------------|

I'll leave you the lyrics down here


Like a hon mama work just trying to get by (hey yea) 
And enough get to you so they still want no get no bly (he he he) 
Just keep on the hustle ‘cause we have to stay pon the grind (he he yea) 
Don’t give up on yo dreams ‘cause you know the sun will shine (he he he) 
The sun will shine 


I’m tired in the morning, too late at night 
See mama scraping for nickles and dimes 
On the salary she’s making we can barely survive 
Tell me is these something greater in this life? 


Wait, said mama 
Patience, said mama 
Breaking down is not an option 
Make it happen somehow 


Like a hon mama work just trying to get by (hey yea) 
And enough get to you so they still want no get no bly (he he he) 
Just keep on the hustle ‘cause we have to stay pon the grind (he he yea) 
Don’t give up on yo dreams ‘cause you know the sun will shine (he he he) 
The sun will shine 
 
How much more can my mama take? 
Now I’ve got to step up to the play 
Can’t afford to make mistakes 
Ain’t no time to waste 


Wait, said mama 
Patience, said mama 
Breaking down is not an option 
Make it happen somehow 


Like a hon mama work just trying to get by (hey yea) 
And enough get to you so they still want no get no bly (he he he) 
Just keep on the hustle ‘cause we have to stay pon the grind (he he yea) 
Don’t give up on yo dreams ‘cause you know the sun will shine (he he he) 
The sun will shine 


To hold in since, damn I make it so hard 
From California straight to New York 
From Chicago going straight to her yard 
People everywhere, them everywhere, can I stry? 
Can’t get a piece so be fly your body borderline 
Everywhere I go them facing much harder times 
They know the grass feel greener pon the other side 
But me still want see one we can’t find 


Like a hon mama work just trying to get by (hey yea) 
And enough get to you so they still want no get no bly (he he he) 
Just keep on the hustle ‘cause we have to stay pon the grind (he he yea) 
Don’t give up on yo dreams ‘cause you know the sun will shine (he he he) 
The sun will shine

please contact me for any suggestions or corrections and I shall update this
my email tomilapeyre96@gmail.com