Tag: citizen

Tracking Time chords – Citizen

 : Fabio BlenderBR

 Enjoy!


 - Intro: 

 F C Dm Bb F C Dm Bb  


 - Intro Riff:

e|-------------------------1-0--------|
B|-------------------1-111-----1h3-1--|
G|-0--0-2-222---0-2-------------------|
D|------------------------------------|
A|------------------------------------|  2x
E|------------------------------------|


 - Verse:

 F C 
  I hear you've ended up fine,
 Dm Bb 
  And I've heard you're making out alright.
 F C 
  I've heard you still don't like the cold outside,
 Dm Bb 
  And I've heard you still got trouble tracking time.



 - Intro: 

 F C Dm Bb F C Dm Bb  


 - Intro Riff:

e|-------------------------1-0--------|
B|-------------------1-111-----1h3-1--|
G|-0--0-2-222---0-2-------------------|
D|------------------------------------|
A|------------------------------------|  2x
E|------------------------------------|


 - Verse 2:

 F C 
  And I heard, you said one time,
           Dm Bb 
  That I never even fucking cross your mind.
 F C 
  I guess I'll act like that's fine,
                  Dm Bb 
  But you should know that you cross mine all the time.



 - Intro: 

 F C Dm Bb F C Dm Bb F C Dm Bb F C Dm Bb  


 - Intro Riff:

e|-------------------------1-0--------|
B|-------------------1-111-----1h3-1--|
G|-0--0-2-222---0-2-------------------|
D|------------------------------------|
A|------------------------------------|  2x
E|------------------------------------|

e|-------------------------1-0-1-3-6-5-3-1---6-5-3-1-----------|
B|-------------------1-111-----------------------------2-0-----|
G|-0--0-2-222---0-2----------------------------------------3---|
D|-------------------------------------------------------------|
A|-------------------------------------------------------------|  1x
E|-------------------------------------------------------------|

__________
: Fabio BlenderBR

Shouldve Been Me chords – Citizen Way V5

 
Verse 1:
 C9 G Am7 Em 
I've read the story, I've seen the movie
 C9 G Am7 Em 
I give to charity and tithe my ten percent
 C9 G Am7 Em D 
These I remember but I so easily forget
All these years never heard it like this

Chorus:
                  C9 Em 
It should've been me, it should've been us
                 D Am7 
Should've been there hanging on a cross
               C Em 
All of this shame, all of these scars
                  Bm D 
Should've been stains that were never washed
           C9 Em 
Why do I hide, why do You try
           D Am7 
Over and over and over again
                 D/F# 
I guess it just leaves me saying thank God
           D 
Leaves me saying thank God, thank God
For the should've been


 C9 - G - Em - Am7 

Verse 2: SAME CHORDS AS VERSE 1

I live a good life, I love a great wife
Our kids are beautiful, we got friends down the street
If I'm so thankful, why do I easily forget
That You died for all of this

(CHORUS)

BRIDGE:
            C/G D/A 
For this heart You changed, this soul You raised
     G Asus 
My God, for taking my place, yeah, yeah

(CHORUS) 
                 Em D / F#m G G/B C                      
I guess it just leaves me saying thank God

                        C9 G Em Am7 
For the should've been  
                        C9 G Em Am7 
For the should've been





God Bless! I hope you enjoy :D see me at twitter @ThinkerBri

How Sweet The Sound chords – Citizen Way V2

 How Sweet the Sound – Citizen Way

Capo 2

 G Em Em C G 
Yea, though I walk through the valley
 Em C G D 
I know that You are always right beside me
 Em C G 
And I will fear no evil
           Am Dsus 
You’re my rock and my strength.  You comfort me

 C G D 
Amazing grace how sweet the sound
   Em D 
I hear You singing over me
 C G D 
I once was lost but now I’m found.  And it’s beautiful
 C Em D 
Amazing grace how sweet the sound
    Am 
It covers every part of me
 C D 
My soul is silent, I am found
                      C G D 
And it’s a beautiful sound
        Em D C G D 
It’s a beautiful, beautiful sound

 Em C G 
Carry me through the waters
            Em C G/B 
Where Your peace clears away all my sorrow
 Em C G 
Nothing can separate us
            Am D Dsus 
From Your love, oh Your love.  It will always be

 C G D 
Amazing grace how sweet the sound
   Em D 
I hear You singing over me
 C G D 
I once was lost but now I’m found.  And it’s beautiful
 C Em D 
Amazing grace how sweet the sound
    Am 
It covers every part of me
 C D 
My soul is silent, I am found
                      C G D 
And it’s a beautiful sound
        Em D C G D 
It’s a beautiful, beautiful sound

          Am Em 
You were healing in the pain
          G D 
You were shelter in the storm
       C G D 
Hallelujah, You restored my soul
          Am Em 
You were healing in the pain
          G D 
You were shelter in the storm
       C G D 
Hallelujah, You restored my soul

 C G D 
Amazing grace how sweet the sound
   Em D 
I hear You singing over me
 C G D 
I once was lost but now I’m found
 C Em D 
Amazing grace how sweet the sound
    Am 
It covers every part of me
 C D 
My soul is silent, I am found
                      C G D 
And it’s a beautiful sound
   Em D C G D 
A beautiful, beautiful sound
                        C G D 
A beautiful, beautiful sound
    Em D C G D 
A beautiful, beautiful sound

Shouldve Been Me chords – Citizen Way V4

 To get a better feel for when to change chords, please listen to the recording.

The recording does not play the 4th time through the chorus, but if you want to 
play the chords, they are written in.

Intro
Ooo...
 C2  /  G  /  Am  /  Em  x2


Verse 1
 C2 G Am Em 
I've read the story     I've seen the movie
 C2 G Am Em 
I give to charity and tithe my ten percent
 C2 G Am Em Dsus    
These I remember but I so easily forget
          D 
All these years never heard it like this


Chorus 1
                   C2 
IT SHOULD'VE BEEN ME
             Em 
IT SHOULD'VE BEEN US
                D Am 
SHOULD'VE BEEN THERE HANGING ON A CROSS
             C2 
ALL OF THIS SHAME 
             Em           
ALL OF THESE SCARS
                Bm D 
SHOULD'VE BEEN STAINS THAT WERE NEVER WASHED
          C2 Em D Am   
WHY DO I HIDE WHY DO YOU TRY OVER AND OVER AND OVER AGAIN
                 Dsus     
I GUESS IT JUST LEAVES ME SAYIN' THANK GOD
           D               
LEAVES ME SAYIN' THANK GOD THANK GOD FOR THE SHOULD'VE BEEN


Verse 2
Ooo
 C2  /  G  /  Am  /  Em  x2




 C2 G Am Em 
I live a good life     I love a great wife
 C2 G D Em 
Our kids are beautiful we've got friends down the street
 C2 G Am Em D 
If I'm so thankful      why do I easily forget
             D 
Oh that You died for all of this when...


Chorus 2
                   C2 
IT SHOULD'VE BEEN ME
                  Em 
IT SHOULD'VE BEEN US
                D Am 
SHOULD'VE BEEN THERE HANGING ON A CROSS
             C2 
ALL OF THIS SHAME 
             Em           
ALL OF THESE SCARS
                Bm D 
SHOULD'VE BEEN STAINS THAT WERE NEVER WASHED
          C2 Em D Am   
WHY DO I HIDE WHY DO YOU TRY OVER AND OVER AND OVER AGAIN
                 Dsus     
I GUESS IT JUST LEAVES ME SAYIN' THANK GOD
           D 
LEAVES ME SAYIN' THANK GOD


Bridge
           C              
For this heart You changed
         D G A 
This soul You raised my God for taking my place when...


Chorus 3 (DON'T PLAY)
                   C2 
IT SHOULD'VE BEEN ME
                  Em 
IT SHOULD'VE BEEN US
                D Am 
SHOULD'VE BEEN THERE HANGING ON A CROSS
             C2 
ALL OF THIS SHAME 
             Em           
ALL OF THESE SCARS
                Bm D 
SHOULD'VE BEEN STAINS THAT WERE NEVER WASHED

Chorus 4 (PLAY)
                   C2 
IT SHOULD'VE BEEN ME
                 Em 
IT SHOULD'VE BEEN US
                D Am 
SHOULD'VE BEEN THERE HANGING ON A CROSS
             C2 
ALL OF THIS SHAME 
             Em           
ALL OF THESE SCARS
                Bm D 
SHOULD'VE BEEN STAINS THAT WERE NEVER WASHED
          C2 Em D Am   
WHY DO I HIDE WHY DO YOU TRY OVER AND OVER AND OVER AGAIN
                 Dsus 
I GUESS IT JUST LEAVES ME 

Sleep chords – Citizen

 listen to the song a little bit to get the timings right with the cord changes 


NO CAPO :)


intro: 
 Am C  (x2)

 Am                               
We both fell asleep on the floor, 
 C                      
then I left you there
 Am  
You spent so many days alone, 
 C 
so I'll kill myself to make things fair
 Am 
See I just hated being tired cause
 C 
I can't seem to sleep anymore
 Am 
You and all your friends were all 
 G C Am 
right about me all along
 C Am 
    Do you sleep anymore?
 C G Am 
    Do you sleep anymore?


instrumental:
 Am C Bm F Am 
I would love to be patient, 
 G 
but I just won't wait
 Am 
I'm getting sick and tired of the 
 G 
smile that I fake every day
 Am 
I would love to speak my mind, 
 G 
but I can't think straight
 Am 
I would love to feel alive again, 
 C Am 
but I'm not used to change
 C F Am 
   Do you sleep anymore?


instrumental:
 Am C F Am 
And if it make's you feel better, 
 G 
I'll be on my way
 Am 
And all this time I sit around and think, 
 G 
but there's nothing to say
 Am 
And if you want to feel better, 
 G 
I'll stay out of your way
 Am 
And I would love to feel alive again, 
 G Am 
but I guess that can wait
 G Am 
   Do you sleep anymore?
 G Am 
   Do you sleep anymore?
 G Am 
   Do you sleep anymore?
 G F 
   Do you sleep anymore?


outro:
 C Em D  (x2)

____
end

How Does It Feel Acoustic chords – Citizen

 C  
How does it feel to be
               G 
All that you are
                      C 
All that you want to be
                          Em 
Is that what you want to be?


                  C 
And how does it feel to be
               G 
What you've become
                          C 
What you said you would never be
                       Em G 
'Cause I don't feel anything anymore
              C 
So, take me away


 G C Em C 
How does it feel to fit
         G 
Into a mold
               C 
To let go of what you know
                  Em 
And not have to hold your own


                  C 
And how does it feel to be
                 G 
Just like your friends
                          C 
To catch up on what you missed
                      Em 
As simple as you can get
          C 
And you still
           G 
Walk out alone
          Em G 
And you still walk out alone
And you still walk out alone
And you still walk out alone
And you still walk out alone
And you still walk out alone
(How's it feel to let go)
And you still walk out alone
(Of everything that you know)
And you still walk out alone
(How's it feel to let go)
And you still walk out alone
(Of everything that you know)
And you still walk out alone
(How's it feel to let go)
And you still walk out alone
(Of everything that you know)

Tracking Time Acoustic chords – Citizen

 Citizen - Tracking Time acoustic

Intro:  G  -  Dsus  -  Em  -  Cadd9 G Dsus 
I hear you've ended up fine,
 Em Cadd9 
And I've heard you're making out alright.
 G Dsus 
I've heard you still don't like the cold outside,
 Em Cadd9 
And I've heard you still got trouble tracking time.


intro again


 G Dsus 
And I heard, you said one time,
 Em Cadd9 
That I never even fucking cross your mind.
 G Dsus 
I guess I'll act like that's fine,
 Em Cadd9 
But you should know that you cross mine all the time.

Im Sick Of Waiting chords – Citizen

 Sorry if this isn't right, feel free to fix any mistakes or put the tabs from 
after "I'm alone." I cant figure them out. 
Thanks :) 

 Am F Am 
I don't give enough to take back what I own
 F 
My stories are told out of broken homes
 E 
I could be a bit better if I killed off this ghost
 F 
I'm alone

 E Dm E Am F E Am F B E 
I bleed from the inside, and I won't tell anyone
 Am F 
I'm nowhere to find, but I couldn't care at all
 B E 
I live like a ghost to keep me from talking
 Am 
Do you notice where I'm at?
 F 
Cause I couldn't care at all
 E Am 
Nowhere to hide, nowhere to run to 
 F 
when nobody listens
 E 
And I'm just a liar who's tired of trying
 Am F 
I'll pick myself apart cause I couldn't care at all

 Am E Dm E Dm Am 
And I'm sick
                E Dm 
I'm sick of waiting
          Am 
And I'm sick
                   E Dm Am 
I'm sick of waiting

The Summer chords – Citizen

 Citizen - The Summer

Standard tuning

 Dm       5  5  7  7  6  5
 Am       5  7  7  5  5  5
 A#       6  8  8  7  6  6
 C         8  10 10 9  8  8



                  Dm A# 
I watched you burn and I felt it
                     Dm A# 
You're spitting words like you're someone else
                     Dm 
And I watched you run
                          A# 
I was screaming and following you down
                  Dm A# 
It seems I'm stuck in the promise you made
                   Am 
I’m counting out
        
  Dm Am 
I don't want to know
  A# 
I don’t want to know
      Am Dm 
If I could catch you once
                Am A# C 
I’d see you right through


                   Dm 
You said you'd stay and you promised
      A# 
I finally see you out
               Dm A# 
Why'd you wait for the summer to chew and spit me out
            Dm 
I sit awake and wait impatiently
         A# Dm 
The same mistakes are waiting to be made
            A# 
To be made
                             Am Dm A# 
I felt something that is in me change when I
    Dm A# Am 
followed you down


  Dm Am 
I don't want to know
  A# 
I don’t want to know
      Am Dm 
Wish I could write you off
             Am A# C 
I see you right through
  Dm Am 
I don't want to know
  A# 
I don’t want to know
        Am Dm 
how you could just set me off
             Am A# 
I see you right through

How Does It Feel Acoustic Tabs by Citizen

 How Does It Feel (Acoustic) - Citzen

Standard tuning


Intro:
e--0---0--0-0-0-0---0--0-0--x---x--x-x--0----0--0-0-|
B--0---0--0-0-3-3---3--3-3--7---7--7-7--3---3/5-3-0-|
G--0---0--0-0-0-0---0--0-0--0---0--0-0--0-----------|
D--2---2--2-2-2-2---2--2-2--5---5--5-5--4-----------|
A--3---3--3-3-3-3---3--3-3--7---7--7-7--5-----------|
E--x---x--x-x-x-x---x--x-x--x---x--x-x--x-----------|


e--0---0--0-0-0-0---0--0-0--x---x--x-x--0--|
B--0---0--0-0-3-3---3--3-3--7---7--7-7--3--|
G--0---0--0-0-0-0---0--0-0--0---0--0-0--0--|
D--2---2--2-2-2-2---2--2-2--5---5--5-5--4--|
A--3---3--3-3-3-3---3--3-3--7---7--7-7--5--|
E--x---x--x-x-x-x---x--x-x--x---x--x-x--x--|

"And how does it feel.."

e--0---0--0-0-0-0---0--0-0--x---x--x-x--0---0--0-0-|
B--0---0--0-0-3-3---3--3-3--7---7--7-7--3---3--3-3-|
G--0---0--0-0-0-0---0--0-0--0---0--0-0--0---0--0-0-| X3
D--2---2--2-2-2-2---2--2-2--5---5--5-5--4---4--4-4-| 
A--3---3--3-3-3-3---3--3-3--7---7--7-7--5---5--5-5-|
E--x---x--x-x-x-x---x--x-x--x---x--x-x--x---x--x-x-|


e--0---0--0-0-0-0---0--0-0--x---x--x-x--0--|
B--0---0--0-0-3-3---3--3-3--7---7--7-7--3--|
G--0---0--0-0-0-0---0--0-0--0---0--0-0--0--|
D--2---2--2-2-2-2---2--2-2--5---5--5-5--4--|
A--3---3--3-3-3-3---3--3-3--7---7--7-7--5--|
E--x---x--x-x-x-x---x--x-x--x---x--x-x--x--|

"..So take me away"

e--0---0--0-0-0-0---0--0-0--x---x--x-x--0----0--0-0-|
B--0---0--0-0-3-3---3--3-3--7---7--7-7--3---3/5-3-0-|
G--0---0--0-0-0-0---0--0-0--0---0--0-0--0-----------|
D--2---2--2-2-2-2---2--2-2--5---5--5-5--4-----------|
A--3---3--3-3-3-3---3--3-3--7---7--7-7--5-----------|
E--x---x--x-x-x-x---x--x-x--x---x--x-x--x-----------|


e--0---0--0-0-0-0---0--0-0--x---x--x-x--0--|
B--0---0--0-0-3-3---3--3-3--7---7--7-7--3--|
G--0---0--0-0-0-0---0--0-0--0---0--0-0--0--|
D--2---2--2-2-2-2---2--2-2--5---5--5-5--4--|
A--3---3--3-3-3-3---3--3-3--7---7--7-7--5--|
E--x---x--x-x-x-x---x--x-x--x---x--x-x--x--|

"And how does it feel.."

e--0---0--0-0-0-0---0--0-0--x---x--x-x--0---0--0-0-|
B--0---0--0-0-3-3---3--3-3--7---7--7-7--3---3--3-3-|
G--0---0--0-0-0-0---0--0-0--0---0--0-0--0---0--0-0-| X3
D--2---2--2-2-2-2---2--2-2--5---5--5-5--4---4--4-4-| 
A--3---3--3-3-3-3---3--3-3--7---7--7-7--5---5--5-5-|
E--x---x--x-x-x-x---x--x-x--x---x--x-x--x---x--x-x-|


e--0---0--0-0-0-0---0--0-0--x---x--x-x--0---0--0-0--0---|
B--0---0--0-0-3-3---3--3-3--7---7--7-7--3---3--3-3--0---|
G--0---0--0-0-0-0---0--0-0--0---0--0-0--0---0--0-0--0---|
D--2---2--2-2-2-2---2--2-2--5---5--5-5--4---4--4-4--2---| 
A--3---3--3-3-3-3---3--3-3--7---7--7-7--5---5--5-5--3---|
E--x---x--x-x-x-x---x--x-x--x---x--x-x--x---x--x-x--x---|


Dancer From Brazil chords – Citizen Cope

 E /  Ab  m/  A /  B  (ENTIRE SONG)

Verse 1:
 E Abm      
I dreamt of cash in my head
 A B 
I dreamt of princess in foreign lands
 E Abm 
I dreamt of love and affection
 A B 
My lords blessings

Verse 2:
I asked answers to the questions
They got so many guessing
And they all point the same direction
The same point that Im missing

Chorus:
My dancer from Brazil
A love I cant conceal
Ive been after love for years
And I think Im getting near
To my dancer from Brazil
From Brazil