Tag: city

City Of Stars chords by Ryan Gosling & Emma Stone

[Verse 1]

Gm7           C7                        Dm7

City of stars, are you shining just for me?

Gm7          C7                            Fmaj7

City of stars, there’s so much that I can’t see.

     Gm7  C7                            F       Am/E      F7/Eb

Who knows?  I felt it from the first embrace I shared with you

     Gm7       A7                          Dm7   Dm7/C

That now our dreams, they’ve finally come true

[Verse 2]

Gm7           C7                         Dm7

City of stars, just one thing everybody wants.

Gm7              C7                                  Fmaj7           Am/E

There in the bars and through the smokescreen of the crowded restaurants

     Gm7   C7                             F        Am/E   F7/Eb

It’s love, yes, all we’re looking for is love from someone else

  Gm7                A7

A rush, a glance, a touch, a dance

[Bridge]

   Bb                 C                    A7

A look in somebody’s eyes to light up the skies

            Dm7

To open the world and send it reeling.

   Bb                       C                   Dm

A voice that says, I’ll be here and you’ll be alright.

Bb                  C                     A7 

I don’t care if I know just where I will go

                  Dm7

‘Cause all that I need is this crazy feeling.

  Bb                 A7

A rat-tat-tat on my heart

                   Dm7   Dm7/C  Dm7/A  Dm7/G

Think I want it to stay.

[Instrumental]

Abm7  Db7  Ebm7

Abm7  Db7  Gbmaj7

Abm7  Db7  Gbmaj7  Bb/F  Gb7/Fb

Abm7  Bb7

Cb    Db   Bb7   Ebm7

Cb    Db   Ebm7

Cb    Db   Bb7   Ebm7

Cb    Bb7        Ebm

Dm7

Gm7   C7   Fmaj7

Gm7   A7          Dm7  Dm7/C

[Outro]

Gm7          C7                        Fmaj7

City of stars, are you shining just for me?

Gm7          A7                         Dm7

City of stars, you never shined so brightly

Suggest correction

The Vendetta Tabs – Myth City

 -------------------------------------------------------------------------------
                             The Vendetta - Myth City
-------------------------------------------------------------------------------
: Kealan Thorpe
kealan.t@blueyonder.co.uk

 ear so its not 100% correct.

The Chorus and breakdown can also be used on bass.

Bands website: http://www.mythcityuk.com/

Tuning:Drop D

Intro:
e|-------------------------------------------------------------------|
B|-------------------------------------------------------------------|
G|-------------------------------------------------------------------|
D|-------------------------------------------------------------------|
A|------------3--------------------------------3----------3----------|
D|----0----0---1--00-000---------------0----0---1--00-000---0000-----|
      *    *      ** ***
e|---------------------------------------------------------------------------|
B|---------------------------------------------------------------------------|
G|---------------------------------------------------------------------------|
D|---------------------------------------------------------------------------|
A|------------3-------------3-------------------3-----------3----------------|
D|----0----0---1--00-000-----1---0000---0----0---1--00-0000------------------|

e|---------------------------------|
B|---------------------------------|
G|---------------------------------|
D|---------------------------------| x4
A|------------3----------3---------|
D|----0----0---1--0-0-----1---0---0|

Verse:
e|-------------------------------------------------------------------|
B|-------------------------------------------------------------------|
G|-------------------------------------------------------------------|
D|-------------------------------------------------------------------|
A|------------3--------------------------------3----------3----------|
D|----0----0---1--00-000---------------0----0---1--00-000---0000-----|
      *    *      ** ***
e|----------------------------------------------------------|
B|----------------------------------------------------------|
G|----------------------------------------------------------|
D|----------------------------------------------------------| x4
A|------------3-------------3-------------------3-----------|
D|----0----0---1--00-000-----1---0000---0----0---1--00-0000-|

Chorus:
e|-----------------------------------------------------|
B|-----------------------------------------------------|
G|-----------------------------------------------------|
D|-----------------------------------------------------| x3        12=twelve
A|-----------------------------------------------------|
D|---000000000000-3333333333333-0000121212120000121212-|


e|-------------------------------|
B|-------------------------------|
G|-------------------------------|
D|-------------------------------|
A|-------------------------------|
D|----000000000000-3333333333333-|

Verse:
e|-----------------------|
B|-----------------------|
G|-----------------------|
D|-----------------------|
A|------------3----------|
D|----0----0---1--00-000-|

e|----------------------------------------------------------|
B|----------------------------------------------------------|
G|----------------------------------------------------------|
D|----------------------------------------------------------| x8
A|------------3-------------3-------------------3-----------|
D|----0----0---1--00-000-----1---0000---0----0---1--00-0000-|

Chorus:
e|-----------------------------------------------------|
B|-----------------------------------------------------|
G|-----------------------------------------------------|
D|-----------------------------------------------------| x3         12=twelve
A|-----------------------------------------------------|
D|---000000000000-3333333333333-0000121212120000121212-|


e|-------------------------------|
B|-------------------------------|
G|--

Sugar City Magic chords – Bound Stems

 Intro:
(0:00) A
(0:21)  A D A A D A 
(0:27)  Db G Db Db G Db 
(0:32)  D A D A D 
Do you recall the best years of your life? 

Well we try, well we try, well we try. 
        A 
Every man has a past, and she now seems content 

because she's moving to London to be with her kids...

       D 
When you were away, I started over again. 

When you were away, I started over again! 
              A 
Well, I'll worry about what my father's going to say 

when he comes home from work. I can take it--
                  G 
--take it in a Midwest town with the family intact. 

We went to Catholic school, the military brats. 
             A 
We stayed outside all night with our loafers all scuffed; 

the loosened-up ties, the neighborhood toughs. 
              G 
We weren't alone much, and Sundays were hell, 

but if we made it back from church my brother promised to tell. 
                 A 
He said, "Boy, how could you say it? Boy how could you say it?

Boy how could you say it, say it, say it, say it..."

 D 
Bop bop bop bop ba, bop bop bop bop ba
 A  
Bop bop bop bop ba, bop bop bop bop ba  x2

                         D 
She tells me that show now believes it's a matter of principle. 
              A 
Now the neighborhood's gone she won't change them. 
            D A 
She said, "I can see!" She said, "I can see all the empty lots..." 

She kept her married name when he left, for the children's sake.

 G 
My friends still gather around the block! 
                                      A 
With their loosened ties and their guilty faces! 
                         G 
On our bikes we were skeleton thin. 

My father came to shake my hand: 
                     A 
"Take care of the family. I'll explain when you're an older man. I've been found out now."

    D A G G F#m F#m D A 
--tap tap tap tap tap tap tapping on the window for a space on our floor: 
                      D A G G 
"You can stay where papa just left; there's a spot on the fireplace mat. 
                F#m F#m D A 
Welcome to our home. Welcome to our home."
                  D G 
"Welcome to our home, please excuse the mess--"
                                F#m A 
"...But they left it like that last night." Bop bop bop bop ba...

                          D                       
I've been keeping this family afloat for years.  
  G F#m 
I've been keeping this family afloat for years.
                          D 
I've been keeping this family afloat for years.
  G F#m 
I've been keeping this family afloat for years.

(I've been keeping this family afloat for years.)

 Em A D A D G 
La la, la la la la, lalalalala
 Em A D A D G 
La la, la la la la, lalalalala
 Em A D A D G 
We lie asleep in our homes. The evening train goes by, 
 Em A D A D G 
I pull the covers up close. We can hide all night. 
 Em A D A D G 
We lie

Life In The City chords – Lumineers

 Artist: The Lumineers 
Song: Life In The City (acoustic demo)
Video: http://www.youtube.com/watch?v=d1rrMiQIr4Q
Transcription: SCA, kostya.levin.sca 

Tuning: standard
Capo: NO capo

Chords used:
G:   3.2.0.0.3.x
G7:  3.2.0.0.1.x
G6:  3.2.0.0.0.x
F:   x.3.3.2.1.x
C:   x.3.2.0.1.0
Am:  x.0.2.2.1.0
Em7: 0.2.2.0.3.x

Note I:
Lyrics are wrong (software made)

Note II:
G* =  G G7 G6  

Intro:
 C F Am G C   x4

Verse:
 C F Am G C 
And if the sun don't shine on me today
 C F Am G C 
And if the sun wastes flood on Wendy's brain
 C F Am G C  
And if you just lay it down to the degree
 C F Am G C 
Putting all againt the Wendy's hair

Break:
F Em7 G*   x4

Bridge:
            F Em7       G*
And if the city skyscrapers rise over this island
              F Em7            G*
Would you be glad to see Manhattan for once
           F Em7            G*
Cause I'm pushing time James in line on the Broadway
         F Em7         G*
And I'm glad to see Manhattan for once

Pre-chorus:
            F Em7       G*
And if you leave dont leave me all alone
               F Em7             G*
Cause I'll be scared, I'll be naked, I'll be cold
                F Em7 
You don't want that, there's your need
            G*
But you'll never gonna know
            F Em7 
So take me back of these streets
             G*
That you'll never be apart
 G 
Never from the stars
 G 
Never no 
 G 
Never no
 G 
Falling back on love

Chorus:
 C 
Oh oh life in the city
       Em7 
Oh oh you'll never be pretty
 F 
Oh oh
   G*
Oh oh
 C 
Oh oh you can try and make it
       Em7 F G   
Oh oh you'll never take from mouth, oh oh

Verse:
 C F Am G C 
And if the sun don't shine on me today
 C F Am G C 
And if the sun wastes flood on Wendy's brain
 C F Am G C  
And if you just lay it down to the degree
 C F Am G C 
Putting all againt the Wendy's hair

Break:
F Em7 G*   x2

Pre-chorus:
            F Em7       G*
And if you leave dont leave me all alone
               F Em7             G*
Cause I'll be scared, I'll be naked, I'll be cold
                F Em7 
You don't want that, there's your need
            G*
But you'll never gonna know
            F Em7 
So take me back of these streets
             G*
That you'll never be apart
 G 
Never from the stars
 G 
Never no 
 G 
Never no
 G 
Falling back on love

Chorus:
 C 
Oh oh life in the city
       Em7 
Oh oh you'll never be pretty
 F 
Oh oh
   G*
Oh oh
 C 
Oh oh you can try and make it
       Em7 F G   
Oh oh you'll never take from mouth, oh oh

Verse:
 C F Am G C 
And if the sun don't shine on me today
 C F Am G C 
And if the sun wastes flood on Wendy's brain
 C F</sp

Sin City chords – Flying Burrito Brothers

  
Use capo on 2nd fret 

Intro:  D A D D A  
This old town is filled with sin 
         D7 G  
It will swallow you in 
    D A A7  
If you've got some money to burn 
         D A  
Take it home right away 
 A D7 G  
You've got three years to pay 
     D A7 D D7  
But Satan is waiting his turn 
          G A7 D D7  
This old earthquake's gonna leave me in the poor house 
    G D A  
It seems like this whole town's insane 
        G A7 D D7 G  
On the thirty-first floor a gold plated door 
       D A7 D A  
Won't keep out the Lord's burning rain 
     D A  
The scientists say 
         D7 G  
It will all wash away 
     D A A7  
But we don't believe any more 
             D A  
Cause we've got our recruits 
         D7 G  
And our green mohair suits 
    D A7 D D7  
So please show your I.D. At the door 
          G A7 D D7  
This old earthquake's gonna leave me in the poor house 
    G D A7  
It seems like this whole town's insane 
        G A7 D D7 G  
On the thirty-first floor a gold plated door 
       D A7 D A  
Won't keep out the Lord's burning rain 


SOLO   

   D A  
A friend came around 
          D7 G  
Tried to clean up this town 
     D A A7  
His ideas made some people mad 
        D A  
But he trusted his crowd 
       D7 G  
So he spoke right out loud 
     D A7 D D7  
And they lost the best friend they had 
          G A7 D D7  
This old earthquake's gonna leave me in the poor house 
    G D A7  
It seems like this whole town's insane 
        G A7 D D7 G  
On the thirty-first floor a gold plated door 
       D A7 D D7  
Won't keep out the Lord's burning rain 
        G A7 D D7 G  
On the thirty-first floor a gold plated door 
       D A7 G D  
Won't keep out the Lord's burning rain

Inner City Blues chords – Sixto Rodriguez

 From the  Cold Fact    |    : Doug McCabe

This song is played in the key of E (with a capo on the second fret). This is the 
version from the Cold Fact Album. The live version is slightly different.

The introduction starts with down strums on the E chord and then an intermittent E & Em 
before changing to A.

The A has a riff using your little finger on the E string on the 2nd  & 3rd frets. This 
riff occurs several times throughout the song.

Intro:
 E ,  Em ,  A  Etc.


Verse:
 E A 
Going down a dirty inner city side road, I plotted
 E A 
Madness passed me by, she smiled hi, I nodded
 E B5 E 
Looked up as the sky began to cry, she shot it
 E A E 
Meet a girl from Dearborn, early six o-clock this morn, a cold fact
 A E 
Asked about her bag, suburbia's such a drag, wont go back


Chorus:
 G D A E 
'Cos Papa don't allow no new ideas round here
 G D A E 
And now he sees the news, but the pictures not too clear
 A E 
Mama, Papa, stop, treasure what you got; soon you may be caught without it
 A E 
The curfews set for eight; will it ever all be straight? I doubt it.


Verse:
 E A E 
Seven jealous fools playing by her rules, can't believe her
 A E 
He feels so in between, can't break the scene, it would grieve her
 E B5 A 
And that's the reason why he must cry, he'll never leave her.
 E A E 
Crooked children, yellow chalk writing on the concrete walk, their King died
 A E 
Drinking from a Judas cup, looking down but seeing up, sweet red wine


Chorus:
 G D A E 
'Cos Papa don't allow no new ideas round here
 G D A E 
And now you hear the music, but the words don't sound too clear.
 A E 
Mama, Papa, stop. Treasure what you got. Soon you may be caught without it
 A E 
The curfews set for eight will it ever all be straight? I doubt it.


Outro:
 E A 
Going down a dusty, Georgian side road, I wonder
 E B5 E 
The wind splashed in my face, can smell a trace, of thunder.

Sunshine And City Lights chords – Greyson Chance V4

 Greyson Chance
Sunshine And City Lights
Submitted by: jeremyunderground41

Key:  C 

Tuning: Stndard EADGBe

Chords used:
 C  -   x32010
 G  -   320003
 Am  -  x02210
 F  -   133211
 G/B  - x2x003
 Em  -  022000
 C /# - 032xxx


Intro: C--F--


Verse 1:
 C 
  It's taking us downtown
You're watching me
watching me watching me
   F 
go But i never listen
No i never let you know
 C 
  Now we're heading uptown
Is there something or 
                       F 
nothing you wanted to say?                    
Cause i need to go now 
Do you want me 
         G F F (hold)
to stay? Stay


Chorus 1:
 C Em 
  What you need  to know
 Am F 
  Is to try to let 
it go let it go 
 C Em   
  What you need  is
    Am 
to find Someone who
 F G/B 
never will let you go
   C F 
No when Sunshine and city 
lights will guide you
 G/B C F 
home Woah yeah you gotta know
      F (hold)               C 
That i'll never let you go
                           F 
That i'll never let you go


Verse 2:
 C 
  Now we're stucked
in mid town
Surrounded by people
with nothing but sound
 F 
  Now we're going nowhere
Now we are the lost
          C 
and found We're All
over this town
Is there something or
                       F 
nothing you wanted to say?
Do you want me to go now?

cause baby I want
        G F F (hold)
to stay oh stay


Chorus 2:
 C Em 
  What you need  to know
 Am F 
  Is to try to let 
it go let it go 
 C Em   
  What you need  is
    Am 
to find Someone who
 F G/B 
never will let you go
   C F 
No when Sunshine and city 
lights will guide you
 G/B C F 
home Woah yeah you gotta know
That i'll never let you go


Bridge:
 C/E F 
   Sunshine and 
            G 
city lights
 Am 
oohhh
 C/E F 
   Sunshine and 
            G 
city lights


Chorus 3:
 C Em 
  What you need  to know
 Am F 
  Is to try to let 
it go let it go 
 C Em   
  What you need  is
    Am 
to find Someone who
 F 
never will let you go
 C Em 
  What you need  to know
 Am F 
  Is to try to let 
it go let it go 
 C Em   
  What you need  is
    Am 
to find Someone who
 F G/B 
never will let you go
   C F 
No when Sunshine and city 
lights will guide you
 G/B C F (hold)
home Woah yeah you gotta know
That i'll never let you go

At The Birds Foot chords – City And Colour V3

 Capo 1


 Em : 032000
 C/G : 332010
 D/A : 554030



 Em 
There is a fire burning in the ocean,
                 C/G D/A Em 
With death black smoke and devil red flames,
 Em 
You can see it burning from the valley,
            C/G D/A 
Oh you can see it from the high plains,

 Em C/G D/A 
Oooh x 3

 Em 
While they were drillin',
Searchin for black gold,
             C/G D/A 
To add more dollars,
          Em 
To their names,

 Em 
Then one evening,
So suddenly and violent,
              C/G D/A 
There was an explosion,
           Em 
They cant explain,

 Em C/G D/A 
Oooh x 3


Now the deep water horizon
Desends down to deaths door
And at the bird's foot,
They lost all hope,

Cause oil is driftin,
For miles and miles,
Poisoning the Gulf of Mexico,

But of the eleven,
Men at the bottom,
Who sank to an underwater grave?

And while they were sinking,
And their lungs filled with oil,
They must have been screaming,
Screaming to be saved,

Oooh (repeats until end of song)

But of the eleven ,
Men at the bottom,
Who sank to an underwater grave?

While they were sinking,
Their lungs filling with oil,
They must have been screaming,
Screaming to be saved.

Glory chords – City Harmonic V2

 Verse 1: 
  G G  
Image of the unseen Father 
 G D G  
The beginning and the end 
 G G   
All is from Him, to Him, through Him 
 G D G  
All together, held within 
 Am  
Christ the Glorious One 
 Bm  
Christ the Fathers Son 
 C D 
Christ the Glory of God  

Chorus:           
                                   C G  
Like the thunder roaring:                    
                                    C G    
Singin like we are made to sing              
                      Am G Am G  
Giving Glory Glory: to God be the glory                
                                 C G  
Like a crash of lightning                   
                                    C G   
Shine a light for all to see                
                       Am G  
Singin glory, glory               
                        Am G   
To God be the glory  

Verse 2:  
 G G   
Hes the head of We, the Body 
 G D G     
In Him God was pleased to dwell 
 G G   
Death cant hold Him: He is risen 
 G D G  
All things to Him reconciled 
 Am  
Christ the Risen One 
 Bm  
Christ the Kingdom Come
 C D 
Christ the Glory of God  

Chorus:           
                           C G  
Like the thunder roaring:                    
                                      C G    
Singin like we are made to sing              
               Am G Am G  
Giving Glory glory: to God be the glory                
                                  C G  
Like a crash of lightning                   
                                    C G   
Shine a light for all to see                
                       Am G  
Singin glory, glory               
                       Am G   
To God be the glory  

 G  
Glory be to God Christ the Fathers Son 
 G  
Glory be to God Christ the Kingdom come 
X3
 C G 
Glory be to God
X3

Chorus:           
                            C G  
Like the thunder roaring:                    
                                     C G    
Singin like we are made to sing              
                       Am G Am G  
Giving Glory glory: to God be the glory                
                                  C G  
Like a crash of lightning                   
                                    C G   
Shine a light for all to see                
                        Am G  
Singin glory, glory                 
 C G C G  
To God be the Glory to God 
                          X4 (Glory to God)

Capitol City chords – Wilco V2

 -------------------------------------------------------------------------------
                            CAPITOL CITY - Wilco
-------------------------------------------------------------------------------
: jvwald

Tab based on this video from YouTube:


Tuning: Standard
Capo V

 C  x32010
B7no5/ C  x3120x
 G  320033
 A7  x02020
 Am  x02210
A#dim7 x12020
 G7/B  x23030
 C/G  332010
 D7  x00212
F#7no5 212xxx
B7no5 x2120x
 Em  022000
 E7  020100

 C 
Capitol city, skyline photo
B7no5/ C G 
Skyscrapers shine, the sun's so
              A7 
Low in the sky
 C 
Secretaries at the hot dog vendors
B7no5/ C G 
Cabs honk at the bicycle messengers
          A7 
Rolling by
 Am 
I can't call with a subway token
A#dim7         A7/B 
Anyway, the phones are all broken
 C/G                   A#dim7                      D7 
I wish you were here, better yet I wish I was there with you

 G              F#7no5    G 
You wouldn't like it here
             B7no5       Em 
You should stay right there
 Am E7 Am 
Breathin' that country air
 C/G            B7no5/ C 
You wouldn't like it here

 C    B7no5/ C G A7 C 
Capitol towers radiate a steam vent
B7no5/ C G 
Scream along with the clarinets and arguments
                A7 
Echo down the hall
 Am 
I can't sleep, I can't wake up
A#dim7        A7/B 
Shakin' up, maybe we should break up
 C/G                   A#dim7                      D7 
I wish you were here, better yet I wish I was there with you

 G              F#7no5    G 
You wouldn't like it here
             B7no5       Em 
You should stay right there
 Am E7 Am 
Breathin' that country air
 C/G            B7no5/ C 
You wouldn't like it here

 C    B7no5/ C G A7 C 
Capitol city, skyline photo
B7no5/ C G 
Picture postcards signed the moon so
              A7 
Low in the sky
 Am 
I can't smile when my heart's still broken
A#dim7         A7/B 
Far away, in love and unspoken
 C/G                  A#dim7       D7 
I wish you were here or I was there with you

 G    F#7no5    G    B7no5    Em Am E7 Am 


************************************

| /   slide up
| \   slide down
| H   hammer-on
| p   pull-off
| ~   vibrato
| +   harmonic
| x   Mute note
| B   Bend
| pb  Pre-bend
| br  Bend release
| pbr Pre-bend release
| brb Bend release bend

************************************

City Of Dreadful Night Tabs by Biffy Clyro

 ------------------------------------------------------------------------------
                       City Of Dreadful Night - Biffy Clyro

------------------------------------------------------------------------------
: @St4rsAndShites (Twitter)


Tuning: C#G#C#F#A#D# (drop C#)

Order:
Intro                        (I)
Verse part 1                 (II)
Verse part 2                 (III)
instrumental bit part 1      (IV)
Instrumental bit part 2      (V)
Chorus part 1                (VI)
Chorus part 2                (VII)
Verse part 1                 (II)
Verse part 2                 (III)
Instrumental bit part 1      (IV)
Instrumental bit part 2      (V)
Chorus part 1                (VI)
Chorus Part 2                (VII)
Bridge                       (VIII)
Chorus part 2                (VII)
Instrumental bit part 1      (IV)

(I)
|---------------------------------------------------------------------------|
|---------------------------------------------------------------------------|
|---------------------------------------------------------------------------|
|-------------11-11---------------------------------------------------------|
|-------10-10-------10-10-------------3-3-0-0-----0-0-----------------------|
|-11-11-------------------11------------------5-5-----3---------------------|

|---------------------------------------------------------------------------|
|---------------------------------------------------------------------------|
|---------------------------------------------------------------------------|
|-------------------------11-11---------------------------------------------|
|-------------------10-10-------10-10-----------3-3-0-0----0-0--------------|
|-3/7---------11-11-------------------11/3--------------5-5----3/7----------|

(II)
|---------------------------------------------------------------------------|
|---------------------------------------------------------------------------|
|---------------------------------------------------------------------------|
|---------------------------11-11-------------------------------------------|
|---------------------10-10-------10-10------------------3-3-0-0----0-0-----|
|-7-7-7-7-7-7-7-11-11-------------------11/3-3-3-3-3-3-3---------5-5----3/7-|

(III)
|---------------------------------------------------------------------------|
|---------------------------------------------------------------------------|
|---------------------------------------------------------------------------|
|---------------------------------------------------------------------------|
|--------5-5-5-5-5-5-5-5------3-3-3-3-3-3-3-3--(x2)-------------------------|
|-3/5--------------------3--------------------------------------------------|

(IV)
|---------------------------------------------------------------------------|
|------5-------5------5-------5------5-------5-------5-------5--------------|
|----------7--------------7--------------7---------------7------------------|
|----------------0------0---0-----------------------------------------------|
|-0------0---0------------------8------8---8--------------------------------|
|----------------------------------------------9-------9---9----------------|

|---------------------------------------------------------------------------|
|------0-------0-------0-------0--------0-------0-----0-------0-------------|
|----------2---------------2----------------2-------------2-----------------|
|---------------------------------------------------------------------------|
|-0------0---0--------------------------------------------------------------|
|----------------5-------5---5---3--------3---3---0-----0---0---------------|

(V)
|---------------------------------------------------------------------------|
|-------5-5-5-5-5--3-----3----------5-5-5-5-5--3-----3----------------------|
|-------5-5-5-5-5--4-p2--2-p0-------5-5-5-5-5--4-p2--2-0-h2-p0--------------

Together Well Ring In The New Year chords – Motion City Soundtrack V4

 First chord chart I've put out in a while.
Capo on 1 to match the key of the song (you can move the capo anywhere else to 
work with your voice)

This song sounds real good fingerpicked to these chords in my opinion.
Here's a transcription of the pattern I usually use for the verse (and fingerings for chords). 
This pattern just repeats until you get to the Emin before the chorus.

    G Gmaj7/B 
|--------3--------3----------|--------2--------2----------|
|-----3--------3--------3----|-----3--------3--------3----|
|--0--------0--------0-------|--0--------0--------0-------|
|----------------------------|----------------------------|
|----------------------------|--2-------------------------|
|--3-------------------------|----------------------------|

   Cadd9 G Cadd9 G 
----------------------------|----------------------------||
--------3--------3----------|--------3--------3----------||
-----0--------0--------0----|-----0--------0--------0----||
----------------------------|----------------------------||
--3-------------------------|--3-------------------------||
-----------3--------3-------|-----------3--------3-------||


 G Gmaj7/B 
   This must be it.
                   Cadd9 G Cadd9 G 
   Welcome to the new year.
 G Gmaj7/B 
   The drinks were consumed,
                     Cadd9 G Cadd9 G 
   the plants were destroyed, and the hors d'oeuvres dismantled.
 G Gmaj7/B 
   I'm not smiling
     Cadd9 G Cadd9 G 
   behind this fake veneer.
          G Gmaj7/B 
   I am often interrupted
                   Cadd9 G Cadd9 G 
   or completely ignored,
        Emin Fmaj7 
   but most of all I'm bored.


 G Cadd9 D          
   I'm trying to find out
   Cadd9 G Cadd9 Fmaj7 
   if my words have any meaning.
 G Cadd9 D Cadd9 
   Lackluster and full of contempt
             G Cadd9 Fmaj7 
   when it always ends the same.
    Emin F 
   Why won't she listen to me?


 G Gmaj7/B 
   Why did I come?
                   Cadd9 G Cadd9 G 
   Oh, why did I come here?
 G Gmaj7/B 
   These humans all suck.
                  Cadd9 G Cadd9 G 
   I'd rather be home feeling violent and lonely.
 G Gmaj7/B Cadd9 G Cadd9 G     
   I'm not trying to sound so insincere,
            G Gmaj7/B 
   but the postcard that's taped to the freezer reads:
                   Cadd9 G Cadd9 G 
   "Wish you were here."
          Emin Fmaj7 
   How I wish I could disappear.


 G Cadd9 D    
   I'm trying to find out
   Cadd9 G Cadd9 Fmaj7 
   if my words have any meaning.
 G Cadd9 D Cadd9 
   Lackluster and full of contempt
            G Cadd9 Fmaj7 
   when it always ends the same.

 G Cadd9 D Cadd9  
   Heads up Damage Control,
              G Cadd9 Fmaj7 
   ther

How Come Your Arms Are Not Tabs by City And Colour V2

 Tuning: C Standard- 2 Full Steps Down
Dallas Green has done it once again with a very nice cover. The whole song is really 
just 3 chords.
Em - C - G. With simple hammer ons added on throughout. The strumming pattern does
increase as the song progresses, but its not hard to figure it out. Most of the song he plays
the G chord part twice, sometimes he plays it once and restarts the bar over, so watch 
out for that. Enjoy! Seemed pretty accurate!


(/) Slide Up  (\) Slide Down  (h) Hammer On  (p) Pull Off  (b) Bend (r) Release (v) Vibrato

C  |--0--0----0----0--0---------0----0----------0-----0----|
G  |--0--0h1--1h3--0--0h1p0-----0h1--1h3--------0h1---1h3--|
Eb |--0--0----0----0--0---------0----0----------0-----0----|
Bb |--2--2----2----2--2------0--0----0---- 0----0-----0----|
F  |--2--2----2----3--3------2--2----2--- -0h2--2-----2----|
C | --0--0----0--------------3--3----3-----3----3-----3----|
                   ^
                   ^
         Occasionally do the same hammer on process as the Em chord before
                0h1 -- 1h3

Sometimes Tabs by City And Colour V3

 Sitting at home one night and figured out the correct way for this tab, Ive seen the 
other tabs on here in the Standard Tuning and Capo 6. Which is pretty much the right way, 
but one difference. The A string is tuned a full step up to B.

Capo 6
(/) Slide Up  (\) Slide Down  (h) Hammer On  (p) Pull Off  (b) Bend (r) Release (v) Vibrato

INTRO
E|----------------0----------------------------0----|
B|----------------0----------------------------0----|
G|-----------2-4- 0----2/4\2p0-----------------0----|   Strum and let Chords ring 1x
D|---0-2-2h4------4------------2/4\2p0---------0----|    Strum the Chords softly 3x
B|--0-------------2--------------------3/5p0-- 0----|
E|----------------2--------------------------3-3----|

VERSE
E|-- 0 0------------------0-0----------- |
B|-- 0 0------------------0-0------------|
G|-- 0 0----------------- 0-0------------|  4x
D|-- 4 4----------------- 0-0------------|
B|-- 0h2----------------- 0-0------------|
E|-- 0h2----------------- 0h3------------|

Then again the intro fill after Chorus? ( Which will be tabbed and updated soon )

E|---------------------|
B|---------------------|
G|-----------2-4-------|
D|---0-2-2h4-----------|
B|--0------------------|
E|---------------------|

Then repeat Verse, Chorus? then Outro. ( Which is Verse until faded out )

God Of This City chords – Praise And Worship

 Verse 1:
                        C 
You're the God of this city
                          G/B 
You're the King of these people
                         Am7 
You're the Lord of this nation
     F 
You are

Verse 2:
                           C 
You’re the light in this darkness
                         G/B 
You’re the hope to the hopeless
                         Am7 
You’re the peace to the restless
     F 
You are

Pre Chorus:
 Am7 G/B F 
There is no one like our God
 Am7 G/B F G 
There is no one like our God

Chorus:
 F    
Greater things have yet to come
 G 
Greater things are still to be done 
           C G/B Am7 
In this city
 F 
Greater things have yet to come
 G C 
Greater things are still to be done here

Instrumental:
( C )    G/B Am7 F Am7 G/B F   (2x)

City On The Hill chords – Praise And Worship

 Verse 1:

 Bm D *
Did you hear of the city on the hill?
 C Em7 
Said one old man to the other
 Bm D *
It once shined bright and it would be shining still
 C Em7 
But they all started turning on each other

Verse 2:

 Bm D *
You see, the poets thought the dancers were shallow
 C Em7 
And the soldiers thought the poets were weak
 Bm D *
And the elders saw the young ones as foolish
 C Em7 
And the rich man never heard the poor man speak

Chorus:

 G 
And one by one
 D 
They ran away
 C 
With their made up minds
 Em7 
To leave it all behind
 G D 
And the light began to fade
 C 
In the city on the hill
 C 
The city on the hill

Verse 3:

 Bm D *
Each one thought that they knew better
 C Em7 
That they were different by design
 Bm D *
Instead of standing strong together
 C Em7 
They let their differences divide

Chorus:

 G 
And one by one
 D 
They ran away
 C 
With their made up minds
 Em7 
To leave it all behind
 G D 
And the light began to fade
 C 
In the city on the hill
 C 
The city on the hill
Passage:

 Bm D *    C Em7 
                And the world is searching still
 Bm D *    C 

Bridge:

 G 
But it was the rhythm of the dancers
That gave the poets life
 D 
It was the spirit of the poets
 C 
That gave the soldiers strength to fight
 G 
It was the fire of the young ones
 Bm 
It was the wisdom of the old
 C 
It was the story of the poor man
That needed to be told

Ending:

 Bm D *      C 
                Come home
 Em7 
And the Father's calling still
 Bm D *      C 
                Come home
 Em7 
To the city on the hill
 Bm D *      C 
                Come home

Detroit City chords – Texas

 DETROIT CITY
 C F 
Said you got tired of the same old rock n roll
                                                                 C 
Let’s anew at sunset, life with a lot more soul
           Am G 
Well I know you spend a lot of time alone in your head
 C F 
Remember what you said
                   C G 
I never thought you’d be so easily lead

(Pre-Chorus)
 Em F 
One million lights, they’re burning our eyes til the morning
 E G 
Run for our lives as you watch all the cars on the freeway

(Chorus)
                    C F Dm 
And you said I… I come from Detroit City
 C F Dm 
I… I’m hard to satisfy
          C G F 
And I want someone like you, you look so pretty
                   C 
In Detroit City
 F Dm C C F 
You said you got some on the city again, it's dreams
                                                                C 
They make cuts in the heat while the siren screams

 Am G                              
I couldn’t believe someone like me would leave you so weak
         F 
We’re dancing in the street
               C G 
You know we don’t need no sleep

(Pre-Chorus)
 Em F 
One million lights, they’re burning our eyes til the morning
 E G 
Run for our lives as you watch all the cars on the freeway


(Chorus)
                    C F Dm 
And you said I… I come from Detroit City
 C F Dm 
I… I’m hard to satisfy
          C G F 
And I want someone like you, you look so pretty
                   C 
In Detroit City

 F Dm C F Dm  

(Bridge)
 C 
And now the lights are burning out
                                  F 
And now the boys are turning back
                    G 
But you stay here with me
           C 
In the city

(Chorus)
                  C F Dm 
And he said I… I come from Detroit City
 C F Dm 
I… I’m hard to satisfy
          C G F 
And I want someone like you, you look so pretty
                   C 
In Detroit City
 F Dm C F Dm C F Dm C F Dm 
Detroit City
            C 
Detroit City
             F          
Detroit City
 Dm C 
Detroit, Detroit, Detroit 

City On Fire intro Tabs by The Lionheads

 Tuning: EADGBe

Intro x4

  G                Bb                            F
|-----------------------------------------------------------------------------------------------|
|-----------------------------------------------------------------------------------------------|
|-12-10-12---------10-12-10---------------------------------------------------------------------|
|-----------12--------------12-------12-10-8-----10----8-10---8-10---8-10-8---------------------|
|----------------------------------------------------------------------------10-----------------|
\-----------------------------------------------------------------------------------------------|

Sometimes I Wish Tabs by City And Colour

 So I know that there are a few other tabs of this song on the site, but after trying 
them they don't seem
quite right to me. Here is what I think is right, but if I am wrong, please don't 
hesitate to comment below.
Enjoy.

This song is in Standard Tuning [EADGBe] with a capo on the 6th fret, all tabs are in 
relation to the capo.
I wasn't able to figure out a way to show the strumming pattern, so just listen to the 
song to get it right
(it's a fairly simple pattern) I also am not 100% positive on the solo, but I did my 
best and if you play
 it at the right speed it sounds about right; once again, feel free to comment with any 
changes to the solo.

INTRO
e|---------------------0-----------------------0|
B|---------------------0-----------------------0|
G|------------2-2h4----0--2/4-2----------------0|
D|----0-2-2h4--------0-4--------2/4-2-0-0h2--0-4|
A|--2----------------2-2---------------------2-2|
E|-------------------0-0---------------------3-3|

BRIDGE
e|-0---0-|
B|-0---0-|
G|-0---0-|  x4
D|-4---0-|
A|-2---2-|
E|-0---3-|

VERSE
e|-0---0-|
B|-0---0-|
G|-0---0-|  x5
D|-4---0-|
A|-2---2-|
E|-0---3-|

BRIDGE
e|-0---0-|
B|-0---0-|
G|-0---0-|  x2
D|-4---0-|
A|-2---2-|
E|-0---3-|

VERSE
e|-0---0-|
B|-0---0-|
G|-0---0-|  x3
D|-4---0-|
A|-2---2-|
E|-0---3-|

SOLO
e|--------------------------------------------------------|
B|--------------------------------------------------------|
G|--------2-------------2------/7-6-2-4------/7-6-2---2h4-|
D|--2-4-----4~----2-4-4---4~------------4~----------4-----|
A|--------------------------------------------------------|
E|--------------------------------------------------------|

e|------------------------------------------------------------|
B|------------------------------------------------------------|
G|-/7-6-2-4------/7-6-2-4-------------2------2---2---2---2-4~-|
D|----------4~------------4~----4-2-4---4------4---4---4------|
A|------------------------------------------------------------|
E|------------------------------------------------------------|

e|------------------------------------------------|
B|------------------------------------------------|
G|-/7-6-2~--/4---/7-6-7-6-2~--/4---/7---6--2-4~---|
D|------------------------------------------------|
A|------------------------------------------------|
E|------------------------------------------------|

e|----------------------------------------------------|
B|----------------------------------------------------|
G|--11-11--9-9--7-6-2-0-------2------2---2---2---2-4~-|
D|----------------------4-2-4---4------4---4---4------|
A|----------------------------------------------------|
E|----------------------------------------------------|

VERSE
e|-0---0-|
B|-0---0-|
G|-0---0-|  x8
D|-4---0-|
A|-2---2-|
E|-0---3-|


LYRICS
[INTRO x 5 throughout first verse]
If I was a simple man,
Would we still walk hand in hand?
And if I suddenly went blind,
Would you still look in my eyes?
What happens when I grow old?
And all my stories have been told?
Will your heart still race for me?
Or will it march to a new beat?
If I was a simple man
[BRIDGE x 4]
[VERSE x 5]If I was a simple man,
I'd own no home, I'd own no land
Would you still stand by my side?
And would our flame still burn so bright?
Sometimes I wonder why,
I'm so full of these endless rhymes
About the way I feel inside
I wish I could just get it right
[BRIDGE x 2]
[VERSE x 3]If I was a simple man
And I could make you understand
There'd be no reason to think twice
You'd be my sun; you'd be my light
[SOLO]If I was a simple man...
If I was a simple man...
[VERSE x 8]Sometimes I wonder why
I'm so full of these endless rhymes
About the way I feel inside
I wish...
Sometimes...Sometimes...
Sometimes...Sometimes...
Sometimes...Sometimes...
Sometimes...Sometimes...
Sometimes...Sometimes...
Sometimes...Sometimes...

Rock City intro Tabs by Kings Of Leon V2

 E|-----------------------------------------------------------------------------------------|
B|-------------7-----10---------------------------------------7--8--7--8--7----------------|
G|--9b11----9-----9------9b11----9b11--9b11--7--9--7-----7-------------------9-------------|
D|----------------------------------------------------9-------------------------9--9b11r9--|
A|-----------------------------------------------------------------------------------------|
E|-----------------------------------------------------------------------------------------|



E|---------------------------------------------------------------------------|
B|----------------3---------5-------7----9b10-----------------9b10--7--8--7\-|
G|---------------------------------------------11--7--9--7-------------------|
D|--4--2--4--2/4-------4/5-----5/7-------------------------------------------|
A|---------------------------------------------------------------------------|
E|---------------------------------------------------------------------------|



E|-------------------------------------------------------------------------|
B|--12-----14-----15---------8--------10---------12---------14----15-------|
G|--14b16--16b18--17b19----------------------------------------14----------|
D|------------------------8/9-----9/10------10/12------12/14---------------|
A|-------------------------------------------------------------------------|
E|-------------------------------------------------------------------------|