Tag: club

Start Over Acoustic chords by New Hope Club

[Intro]
F# C# B   B C#
F# C# B   B C#
[Verse 1: Blake]
F#             C#
Don't you hang up on me
B          B        C#        F#   C# B      B C#
I know you probably think I'm mad, oh no
F#            C#             B           B       C#      F#    C# B    B C#
But I haven't been to sleep, thinking of ways to get you back, oh no


[Pre-Chorus: George]
        F#   C# B                 B         C#    F#      C#
And I wonder,   if I'm in trouble with your older brother
B                 B    C#      F#     C#
I don't think you even kept my number
B                B       C#  F#     C# B
If only we could do this all again (again)


[Chorus: Reece]
F#                                         A#m
I wouldn't spill that drink on your dress, wouldn't be so late
E                                     B
I would have paid the bill instead of splitting it two ways
         F#                           A#m
Would of told ya "you look beautiful" instead of "you look nice"
E                              B
Girl I couldn't be more stupid even if I tried
   Bm
Oh I wish we could start over again


[Verse 3: Blake]
F#        C#               B           B           C#       F#    C# B     B C#
I bet you told your friends it was the worst night of your life (oh yeah)
F#       C#            B           B           C#       F#     C# B
I wish I could pretend but we both know you're probably right (oh yeah)


[Pre-Chorus: George & Reece]
F#                C#  B                  B      C#    F#      C#
And if I'm honest,    a second date with you is all I wanted
    B             B       C#       F#      C#
And if I'm honest,    a second date with you is all I wanted
And I just hope I haven't gone and blown it
B                B       C#  F#     C# B
If only we could do this all again (again)

[Chorus: All,  Reece ]

F#                                         A#m
I wouldn't spill that drink on your dress, wouldn't be so late
E                                     B
I would have paid the bill instead of splitting it two ways
         F#                           A#m
Would of told ya "you look beautiful" instead of "you look nice"
E                              B
Girl I couldn't be more stupid even if I tried

F#                                         A#m
I wouldn't spill that drink on your dress, wouldn't be so late
E                                     B
I would have paid the bill instead of splitting it two ways
         F#                           A#m
Would of told ya "you look beautiful" instead of "you look nice"
E                              B
Girl I couldn't be more stupid even if I tried
   Bm
Oh I wish we could start over again


[Bridge: Reece]

        F#   C# B                 B         C#    F#      C#
And I wonder,   if I'm in trouble with your older brother
B                 B    C#      F#     C#
I don't think you even kept my number
B                B       C#  F#     C# B
If only we could do this all again (again)


[Chorus: All,  Reece ]

F#                                         A#m
I wouldn't spill that drink on your dress, wouldn't be so late
E                                     B
I would have paid the bill instead of splitting it two ways
         F#                           A#m
Would of told ya "you look beautiful" instead of "you look nice"
E                              B
Girl I couldn't be more stupid even if I tried

F#                                         A#m
I wouldn't spill that drink on your dress, wouldn't be so late
E                                     B
I would have paid the bill instead of splitting it two ways
         F#                           A#m
Would of told ya "you look beautiful" instead of "you look nice"
E                              B
Girl I couldn't be more stupid even if I tried
   Bm
Oh I wish we could start over again

De Camino A La Vereda Tabs – Buena Vista Social Club

 Props to user: gobels
for having proper chords down
I just added a capo, the main riff on guitar and the trumpet licks to make it complete

-------------------------------------------------------------------------------
              DE CAMINO A LA VEREDA - BUENA VISTA SOCIAL CLUB
-------------------------------------------------------------------------------
: ignaciomendez
 ignacio.mendeznunez

Tuning: Standard
Capo 3rd Fret

Main Riff

   (C)          (F)                (G)         (C)
e|-----------------------------------------1----0----3-----------------------|
B|--------1-----------1---------------0-3----------------1-------------------|
G|-----0--------2--2---------------0-----------------------------------------|
D|--2-------2---3-----------2-3-4--------------------------------------------|
A|--3------------------------------------------------------------------------|
E|---------------------------------3-----------------------------------------|

Variation
   (C)          (F)                (G)         (C)
e|---------------------------------------------------3-3-5-3----(or just 8)--|
B|--------1-----------1---------------0-3----0--1----------------------------|
G|-----0----3---2--2---------------0-----------------------------------------|
D|--2-----------3-----------2-3-4--------------------------------------------|
A|--3------------------------------------------------------------------------|
E|---------------------------------3-----------------------------------------|


Chords with Lyrics

Intro: C F G C x2

Chorus 

C          F              G           C
!Óigame compay! No deje el camino por coger la vereda.   (Sí, Señor.)
C          F              G           C
!Óigame compay! No deje el camino por coger la vereda.

Verse 1:
C       F
Usted por enamorado
G               C
Tan viejo y con poco brillo
C       F
Usted por enamorado
G               C
Tan viejo y con poco brillo
C       F
El pollo que tiene al lado
G               C
Le ha hecho perder el trilloooooo


Chorus 


Verse 2:
C                F            G
Ay, pero yo como soy tan sencillo
             C
Pongo en claro esta trovada
C                F            G
Ay, pero yo como soy tan sencillo
             C
Pongo en claro esta trovada
C            F            G
Compay, yo no dejo el trillo
     C
 Para meterme en cañadaaaa


Chorus


Verse 3:
Ay, pero estabamo´ comentando
Por qué ha abandonado a Andrea
Ay, pero estabamo´ comentando
Por qué ha abandonado a Andrea
Compadre uste´ ´ta cambiando
De camino por vered

Chorus

C                             F            
Pero mire compadrito, uste´ ha ´dejao´ a la
               G       C
pobre Geraldina para meterse Dorotea.


Chorus

Trumpet Riffs at @2:03 (fast lick below)
e|---------------------------------------------------------------------------|
B|---1-1-1---3-1-0-0--3--1h3p1p0-0----1--------------------------------------|
G|-0--------------------------------2---0------------------------------------|
D|-----------------------------------------2---------------------------------|
A|---------------------------------------------------------------------------|
E|---------------------------------------------------------------------------|

Chorus 

Trumpet Riffs at @2:12 (fast lick below)
e|--------0----------3--0-1------------------------0-------------------------|
B|---1-3-------3-1----------------3--1--0-1p0----0---3-3-1----0--------------|
G|-0--------------------------2--------------2-------------2----0-0-0--------|
D|---------------------------------------------------------------------------|
A|---------------------------------------------------------------------------|
E|---------------------------------------------------------------------------|

Bridge

C
No hables de tu marido mujer.
                     G
Mujer de malos sentimientos,
G
Todo se te ha vuelto un cuento
                               C
Porque no ha llegado la hora fatal.


Chorus

Bridge

Chorus




*

De Camino A La Vereda chords – Buena Vista Social Club V2

 CHORUS:

 D# G# A#7 D# 
!Óigame compay! No deje camino por coger la vereda
 D# G# A#7 D# 
!Óigame compay! No deje camino por coger la vereda

I:

 D# G# 
Usted por enamorado
 A#7 D# 
Tan viejo y con poco brillo
 D# G# 
Usted por enamorado
 A#7 D# 
Tan viejo y con poco brillo
 D# G# 
El pollo que tiene al lado
 A#7 D# 
Le ha hecho perder el trillo

CHORUS:

 D# G# A#7 D# 
!Óigame compay! No deje camino por coger la vereda
 D# G# A#7 D# 
!Óigame compay! No deje camino por coger la vereda

II:

 D# G# 
Ay, pero yo como soy tan sencillo
 A#7 D# 
Pongo en claro esta trovada
 D# G# 
Yo como soy tan sencillo
 A#7 D# 
Pongo en claro esta trovada
 D# G# 
Compay, yo no dejo el trillo
 A#7 D# 
Para meterme en Canadá

CHORUS:

 D# G# A#7 D# 
!Óigame compay! No deje camino por coger la vereda
 D# G# A#7 D# 
!Óigame compay! No deje camino por coger la vereda

III:

 D# G# 
Ay, pero estabamo' comentando
 A#7 D# 
Por que ha abandonado a Andrea
 D# G# 
Estabamo' comentando
 A#7 D# 
Por que ha abandonado a Andrea
 D# G# 
Compadre uste' 'ta cambiando
 A#7 D# 
De camino por vereda

CHORUS:

 D# G# A#7 D# 
!Óigame compay! No deje camino por coger la vereda
 D# G# A#7 D# 
Pero óigame compay! No deje camino por coger la vereda
 D# G# A#7 D# 
!Óigame compay! No deje camino por coger la vereda
 D# G# A#7 D# 
Pero mire compadrito, uste' ha 'dejao' a la
  D# G# A#7 D# 
!Óigame compay! No deje camino por coger la vereda
 D# G# A#7 D# 
Pobre Geraldina para meterse con Dorotea
  D# G# A#7 D# 
!Óigame compay! No deje camino por coger la vereda
  D# G# A#7 D# 
!Óigame compay! No deje camino por coger la vereda
  D# G# A#7 D# 
!Óigame compay! No deje camino por coger la vereda

BRIDGE:

    D# 
No hables de tu marido, mujer
                     A# 
Mujer de malos sentimientos
 A#7 
Todo se te ha vuelto un cuento
                              D# 
Porque no ha llegado la hora fatal

CHORUS:

  D# G# A#7 D# 
!Óigame compay! No deje camino por coger la vereda
  D# G# A#7 D# 
Ay pero óigame compay! No deje camino por coger la vereda
  D# G# A#7 D# 
!Óigame compay! No deje camino por coger la vereda
 D# G# A#7 D# 
Ay ay ay ay, canta y no llore' Eliade'
  D# G# A#7 D# 
!Óigame compay! No deje camino por coger la vereda
  D# G# A#7 D# 
Porque cantando se alegran, cielito mio los corazones
  D# G# A#7 D# 
!Óigame compay! No deje

Club Montepulciano chords by Hooverphonic

 Intro:

F#m,B,F#m,B

Main Riff:

e]------------------------------------
b]------------------------------------
g]------------------------------------
d]----------2-1-----1-----------------
a]----2-2-4-----2-2---2---------------
e]------------------------------------



Lyrics with chords:

 F#m B 
Fiona said something nice to me

 F#m B 
green velvet jacket sets you free

 F#m B 
Lenny Beige is performing spinning wheel

 F#m B 
Club Montepulciano is what you need


 D E 
blue Hawaii, piccadilly whore

 F#m B 
a cocktail is what I'm longing for

 D E 
blue Hawaii, piccadilly whore

 F#m B 
Roger fell asleep you know


: Anthony Cancilla

Hate The Taste Tabs – Black Rebel Motorcycle Club

 Song: Hate The Taste
Artist: Black Rebel Motorcycle Club
 Specter at the Feast
Guitarist: Peter Hayes
Tuning: Standard
: Pini-Glock

Another song by Black Rebel Motorcycle Club which wasn't tabbed yet. It's only the guitar of Peter.

Tab taken from this video: https://www.youtube.com/watch?v=GWZ5piWRQ14

If you have suggestions or questions you can always leave a comment or contact me at my UG page! :)

Anyways enjoy this great song!

Cheers Nick! 

Intro & Verses: 

e|-----------------------|
B|-----------------------|
G|-----------------------|
D|-----------------------|
A|-------------3-1-------|
E|--1-1-3-1--1-----3-1-3-|

Chorus: (I wanna ride with you...)

e|-----------------------|
B|--3-3-3-3--------------|
G|----------5-3----------|  Repeat this part 3 times. 
D|-----------------------|
A|-----------------------|
E|-----------------------|

Then: 

e|------------------------------------|
B|------------------------------------|
G|--5b-5--3-4-3-0---------------------|
D|------------------------------------|
A|------------------------------------|
E|------------------------------------|

Bridge: (I'm a mess...)

e|--3-3-0-3-3-3-0-3-3-0-3-3-3-0-3-3-0-3-3-3----------------------|
B|--3-3-0-3-3-3-0-3-3-0-3-3-3-0-3-3-0-3-3-3-5b-5b-5b-5b----------|
G|--3-3-0-3-3-3-0-3-3-0-3-3-3-0-3-3-0-3-3-3----------------------|
D|---------------------------------------------------------------|
A|---------------------------------------------------------------|
E|---------------------------------------------------------------|

Chorus: (I wanna ride with you...)

e|-----------------------|
B|--3-3-3-3--------------|
G|----------5-3----------|  Repeat this part 3 times. 
D|-----------------------|
A|-----------------------|
E|-----------------------|

Than: 

e|------------------------------------|
B|------------------------------------|
G|--5b-5--3-4-3-0---------------------|
D|------------------------------------|
A|------------------------------------|
E|------------------------------------|


Drug Flowers chords – Gin Club

 D Em                               
I once took a pill it was yellow like the colour of a frangipani 
  G Bm A 
And it smiled upon me, It made me happy
 D Em 
I once swallowed acid it was purple like the colour of a jacaranda
                 G Bm A 
She could understand me I could understand her
 D Em               
I once took a cider and amired at how it hurt me
 G Bm A 
To see that feeling and be that healthy
 G A G Bm G E G A      
Oh woh oh,  oh woh oh, oh woh oh, oh woh oh

 G A G Bm G E G A D 
Oh woh oh,  oh woh oh, oh woh oh, oh woh oh

The Mill Hill Self Hate Club chords – Edward Ball

 EDWARD BALL / THE MILL HILL SELF HATE CLUB
(from 'Catholic Guilt', 1997)

The verses all follow the same simple pattern:  F  -  G  -  Am  -  Am 
And so does the refrain:  C  -  D7  -  F  -  F 
The rest can be easily improvised.
Check out the song here: https://www.youtube.com/watch?v=jIUI_NontJI



 F G Am Am F G Am Am F G     
A dark shadow hangs over me 
    Am  
It follows me wherever I go
      F G 
So I wrote this song for the girl by the sea
    Am   
To remind me that we were once close

         F G 
I could never stand to be without you 
     Am  
But when we were together, well we just couldn't stop fighting
        F G 
If you see her, gonna tell her, gonna tell if you see her 
        Am  
That I really really miss her
       
                C D7 
        If you see her, tell her 
             F 
        I'm standing at the Fiveways as the world spins round around me
                C D7 
        If you see her, tell her 
             F 
        I'm just another member of the Mill Hill Self Hate Club

         Am G F F Am G F F F G 
On London Fields I fell for a girl
    Am  
On Primrose Hill she changed my world
      F G 
In a storm at Dover
   Am  
I knew our love would open up

 F G 
Then she brought me back to life
 Am  
Just to have me crucified
     F G 
For fourteen stations of my cross
      Am  
From Waterloo to Dover Docks

            F G 
But if you see her, gonna tell her, gonna tell her if you see her
        Am  
That I really really miss her

                C D7 
        If you see her, tell her, 
             F 
        I'm standing at the Fiveways as the world spins round around me
                C D7 
        If you see her gonna tell her, gonna tell her if you see her
           F                                                            
        I really really miss her and it's driving me insane     

                C D7 
        If you see her, tell her 
             F 
        I'm standing at the Fiveways as the world spins round around me
                C D7 
        If you see her, tell her, 
             F 
        I'm just another member of the Mill Hill Self Hate Club

                C D7 
        If you see her, tell her (won't you, please?)
             F 
        I'm just another member of the Mill Hill Self Hate Club 
                C D7 
        If you see her gonna tell her, gonna tell her if you see her
           F                                                            
        I really really miss her and it's driving me insane     

                C D7 
        If you see her, tell her 
             F 
        I'm just another member of the Mill Hill Self Hate Club 
                C D7 
        If you see her gonna tell her, gonna tell her if you see her
           F                                                            
        I really really miss her...

Wonder chords – Adventure Club

 The chords sound best when played like this:

    Eb F Gm Cm Dm 
e|-6---8---3---3---5-|
b|-8---10--3---4---6-|
g|-8---10--3---5---7-|
d|-8---10--5---5---7-|
A|-6---8---5---3---5-|
E|-x---x---3---x---x-|

Intro:  Eb F Gm Cm Dm Eb F 
  Have you ever wondered
                   Gm 
what it could be like
             Cm Dm            
and I was all set to come back home
 Eb F Gm Cm Dm 
  You were after nothing I could give long
 Eb F 
  Have you ever wondered
                   Gm 
what it could be like
              Cm Dm       
and I was standing back on my feet
 Eb F 
  There's nothing there
                 Gm Cm Dm 
so now we were better


 Eb F 
  And I know I should have held you closer
 Gm Cm Dm 
  and I know I should have treated you better
 Eb 
  in a perfect world
 F Gm 
  but we're not always
           Cm Dm 
what we promised to be
 Eb F 
  You caught my words in mid-air
 Gm Cm Dm  
  The silence hung as you caught my eye
 Eb F Gm Cm Dm 
  conversations locked away in my mind

Have you ever wondered
what it could be like
and I was all set to come back home
You were after nothing I could give long
Have you ever wondered
what it could be like
and I was standing back on my feet
There's nothing there
so now we were better

And I know I should have held you closer
and I know I should have treated you better
in a perfect world
but we're not always what we promised to be
You caught my words in mid-air
The silence hung as you caught my eye
conversations locked away in my mind

Wrong Club intro Tabs – The Ting Tings

 Song:Wrong Club
Artist:The Ting Tings

 QotsaFreak7

Main Riff (played throughout the whole song)
e-------------------------------------------------------|
B-------------------------------------------------------|
G-------------------------------------------------------|
D--------------------6----------------------------------|
A-----------4--4/6-8---8-6---6--6--6h8-6-4--------------|
E---4-6-(6)--------------------------------6------------|

Nobela Tabs – Join The Club V5

 Standard Tuning

Intro:
       Eb           G  
E|--------------------------||
B|--------------------------||
G|-3-/-8-8---8-10-8-7-------||
D|--------------------8-8---||
A|--------------------------||
E|--------------------------||
       Eb           G               Ab
E|------------------------------------||
B|------------------11-8--------------||
G|-3-/-8-8---8-10-8------------8-/-4--||
D|-----------------------10-10--------||
A|------------------------------------||
E|------------------------------------||

Verse 1:

E|---------------------------------||
B|---------------------------------||
G|7-h-8--10----7-h-8---10----------||
D|---------------------------------||
A|---------------------------------||
E|---------------------------------||

               Eb
Ngumiti kahit na napipilitan
Ab                 Eb
Kahit pa sinasadya
Ab               Eb            
Mo akong masaktan paminsan-minsan
Ab                Bb
Bawat sandali na lang

Ab           Eb
Tulad mo ba akong nahihirapan
Ab              Eb
Lalo't naiisip ka
Ab            Eb
Di ko na kaya pa na kalimutan
Ab                Eb
Bawat sandali na lang

Chorus:
*paki pick nalang hanggat satisfied katamad itype ihh :D sorry*

E|---------------------------------||
B|-11------------------------------||
G|---------12-------10-------------||
D|---------------------------------||
A|---------------------------------||
E|---------------------------------||

    Ab          Bb
At aalis magbabalik 
       Eb        C
At uuliting sabihin 
       Ab        Bb
Na mahalin ka't sambitin 
        Gm       C
Kahit muling masaktan 
        Ab (magbabad :D)
Sa pag-alis 
ako'y magbabalik 
sana naman - (Bb)

*Dulo*
E|----------------------------------------------||
B|-11(7 times)-13-13-15-15-16-16-15-16(7 times)-||
G|----------------------------------------------||
D|----------------------------------------------||
A|----------------------------------------------||
E|----------------------------------------------||


Verse 2:

E|---------------------------------||
B|---------------------------------||
G|7-h-8--10----7-h-8---10----------||
D|---------------------------------||
A|---------------------------------||
E|---------------------------------||

             Eb
Sa isang marikit na alaala'y
Ab                   Eb
Pangitaing kay ganda
Ab                  Eb
Sana nga'y pagbigyan

Na ng tadhana
Ab                    Bb
Bawat sandali na lang
Ab                  Eb    
Sumabay sa biglang pagkabahala't
Ab                   Eb
Lumabis sa pagtataka
Ab            Eb       
Tunay na pagsintang di alintana
Ab                 Bb
Bawat sandali na lang 

Chorus:
Hanggang halos mag dulo ng chorus :D
E|---------------------------------||
B|-11------------------------------||
G|---------12-------10-------------||
D|---------------------------------||
A|---------------------------------||
E|---------------------------------||
    Ab          Bb
At aalis magbabalik 
       Eb        C
At uuliting sabihin 
       Ab        Bb
Na mahalin ka't sambitin 
        Gm       C
Kahit muling masaktan 
        Ab (magbabad :D)
Sa pag-alis 
ako'y magbabalik 
sana naman - (Bb)

*Dulo*
E|----------------------------------------------||
B|-11(7 times)-13-13-15-15-16-16-15-16(7 times)-||
G|----------------------------------------------||
D|----------------------------------------------||
A|----------------------------------------------||
E|----------------------------------------------||

Solo:
(C# - Bb)


E|-------------------------------------------------||
B|----------------7-/-9-6---6------6-6-6-7-6-------||
G|-6-8-/-10--8-6----------8----8-------------------||(2 times po :D)
D|-------------------------------8-----------8-----||
A|-------------------------------------------------||
E|-------------------------------------------------||

(Heto yung mag iingay na =D)

         F#                   C#                                  F#
E|-------------6--------------------------------------------------9-----

Feel Tabs by Bombay Bicycle Club

 (/) Slide Up  (\) Slide Down  (h) Hammer On  (p) Pull Off  (b) Bend (r) Release (v) Vibrato

Bombay Bicycle Club - Feel
From So Long, See You Tomorrow

Main riff:

E|-------------------------------------------------||
B|--11--12--14--12------12p11---------------9------||
G|------------------13--------13-11--10h11---------||
D|---------------------------------------------11--||
A|-------------------------------------------------||
E|-------------------------------------------------||

Chorus 1:

E|----------------------------------||
B|----------------------------------||
G|--11--11--13--13--11--11--13--13--||x 5
D|----------------------------------||
A|----------------------------------||
E|----------------------------------||

E|----------------------------------||
B|----------------------------------||
G|--11--11--10--10------------------||
D|------------------13--13--11--11--||
A|----------------------------------||
E|----------------------------------||

Verse 2 (1:54):

E|------------------------------------------||
B|------------------------------------------||
G|--11--11----------11--11--11--------------||
D|----------13--11--------------13--13--11--||
A|------------------------------------------||
E|------------------------------------------||


Chorus 2:

E|------------------------------------------------------------------||
B|------------------------------------------------------------------||
G|--11--11--13--13--11--11--13--13--11--11--13--13--11--11--10--10--|| x2
D|------------------------------------------------------------------||
A|------------------------------------------------------------------||
E|------------------------------------------------------------------||

Final bar:

E|----------------------------------||
B|----------------------------------||
G|--11--11--10--10------------------||
D|------------------13--13--11--11--||
A|----------------------------------||
E|----------------------------------||

Solo (2 Guitars, some kind of harmony):

E|--------------------------------------------------------------------------|
B|----------11h12p11--12h14p12--11h12p11--12h14p12--11h12p11--12h14p12--11--|
G|--11--13------------------------------------------------------------------|
D|--------------------------------------------------------------------------|
A|--------------------------------------------------------------------------|
E|--------------------------------------------------------------------------|


E|-----------------------------------------------------------------------------||
B|-----------------------------------------------------------------------------||
G|----------13h15p13--15h16p15--13h15p13--15h16p15--13h15p13-------------------|| x2
D|--15--16----------------------------------------------------15h16p15h16------||
A|-------------------------------------------------------------------------18--||
E|-----------------------------------------------------------------------------||

Then:

E|-----------------------------------------------------------------------------------||
B|-----------------------------------------------------------------------------------||
G|-------------13/15--15--13----------------------------13/15--15----------5--3------||
D|--13/15--13-----------------15--15/16--15--16/18--15-------------15--16------------||
A|-----------------------------------------------------------------------------------||
E|-------------------------------------------------------------------------------15--||

Final Chorus:

E|----------------------------------||
B|----------------------------------||
G|--11--11--13--13--11--11--13--13--|| x 4
D|----------------------------------||
A|----------------------------------||
E|----------------------------------||

Outro:
E|--------------------------------------------
B|--12--12--12--12--12----12--12--12--12--12--
G|--13--13--13--13--13----13--13--13

Carry Me Tabs by Bombay Bicycle Club

 Main Riff

E||--------------------------------------------||
B||--------------------------------------------||
G||--------------------------------------------||
D||--------------------------------------------||
A||0-2-2-0-2-2-0-5-4--2--0-2-2-0-2-2-0---------||
E||------------------------------------4-2--0--||



Verse

E||--------------------||
B||--------------------|| All except the last time through where it plays a 2 on the A string
G||--------------------|| rather than on that last 2 on the D string
D||4----2---------2----||
A||----------0---------|| NB:- this also gets played in the build up to the final chorus, doesn't 
E||--------------------||      seem to be there in the second verse but there's something similar
                        on a synth so bleh.


Post-Verse

All tremolo picking

E||--------------------------------|     |-----------------------------||
B||7------14-------7-------2-------|     |7-------14-------7-------12--||Or something like that.
G||7------14-------7-------2-------| (x3)|7-------14-------7-------13--||First bit the bass is playing 
D||--------------------------------|     |-----------------------------||D - F# - D - A and then the 
A||--------------------------------|     |-----------------------------||final bit is D - F# - A
E||--------------------------------|     |-----------------------------||




Pre-Chorus/Chorus, the bit with just the little tremolo chords, this song doesn't 
have very well defined sections

E||------------------------------------------------------------------------||
B||12-------10-------14-------16-------14-------10-------12----------------||
G||13-------11-------14-------16-------14-------11-------13----------------||
D||------------------------------------------------------------------------||
A||------------------------------------------------------------------------||
E||------------------------------------------------------------------------||



Chorus


E||------------------------------------------------------------||
B||7-------14-------12-------14-------7-------12---------------||
G||7-------14-------13-------14-------7-------13---------------||
D||------------------------------------------------------------||
A||------------------------------------------------------------||
E||------------------------------------------------------------||



There are some other bits and pieces in there so feel free to comment.

3-4 Tango chords – Polar Bear Club

 Song: 3-4 Tango
Artist: Polar Bear Club
 Clash Battle Guilt Pride

Standard chords throughout.

I like to palm-mute the verses and I substitute the high E on the C chord 
from the chorus for a G:

    C  
E|-0->-3-|
B|-1---1-|
G|-0---0-|
D|-2---2-|
A|-3---3-|
E|-x---x-|

Intro:  Em  -  G  -  Am  -  C E5                                  
Arthur climbs the stairs in the back
 G5                             
Wipes his feet on the welcome mat
 A5                                
Puts his keys on the shelf that he built
 C5 
Checks the plants on the windowsill

 E5                                         
Catches a glimpse of himself in the glass
 G5 
Laughs cause his hair's stickin' up in the back
 A5 
He can't call his kids or his wife
            C5 
Cause he'd drink 'till he'd cry to his daughter

About God and life

[Chorus]

 C 
A silhouette of innocence
 G 
A shaving cut on common sense
 Am 
Holding what can't let you go
 D                                
Laughing hardest to the comic's intro
 C 
A winter walk to clear your mind
 G 
Do your twenties suck until twenty-nine?
 Am 
Holding what can't let you go
 D Em 
Dance your heart out to the 3-4 Tango

 Em 

(E5 - G5 - A5 - C5 through the 2nd verse, in the same manner as the 1st)

Sara disowned her whole family
And then her brother the writer penned the story 
She said, "you just sit there and think that you
Know about people when really
You wanna hold the mirror to nature
Thinking you're the next Miller or Shakespeare
Will the glass ever come to you?
Cause who knows what you'd do?"

[Chorus]

 C 
A silhouette of innocence
 G 
A shaving cut on common sense
 Am 
Holding what can't let you go
 D                                
Laughing hardest to the comic's intro
 C 
A winter walk to clear your mind
 G 
Do your twenties suck until twenty-nine?
 Am 
Holding what can't let you go
 D                                
Dance your heart out to the 3-4 Tango

 D  -  C5 G5 A5 
It's that haunting thought and familiar ghost
                D5 C5 G5 
That holds you hard and can't let you go,
         A5 D5 
Let you go!
(Hey!)

 C  -  G  -  Am  -  D  x2

 C                         
Some use crowds of strangers
        Em 
Like a shield 
      Am Em 
From love and being loved,
       Am 
Being loved

[Chorus]

 C 
A silhouette of innocence
 G 
A shaving cut on common sense
 Am 
Holding what can't let you go
 D                                
Laughing hardest to the comic's intro
 C 
A winter walk to clear your mind
 G 
Do your twenties suck until twenty-nine?
 Am 
Holding what can't let you go
 D C  
Dance your heart out to the 3-4 Tango

 C 
A silhouette of innocence
 G 
A shaving cut on common sense
 Am 
Holding what can't let you go
 D                                
Laughing hardest to the comic's intro
 C 
A winter walk to clear your mind
 G 
Do your twenties suck until twenty-nine?
 Am 
Holding what can't let you go
 D Em 
Dance your heart out to the 3-4 Tango

Keep Smiling Tabs by Bombay Bicycle Club

 Song originally wrote by Jack Steadman.
I might be wrong on some parts so don't be afraid to
leave a comment. I also need the lyrics because I can't
exactly transcribe them. So if you also have those please
comment.I hope some of this helps.
It's all here just make sure were all of the parts go and such.

Intro/Verses:
E--------------------------------|
B--------------------------------|
G---6-----6-----6--------6----6--|
D---4-----4-----4--------4----4--|
A-------7----7-------------------|
E-5---5-------5---5---7----0-----|

Chorus:
E-----------------------|
B-----------------------|
G-10---10---11---6---1--|
D-10---10---11---6---2--| X2
A-8----8-----9---4---2--|
E-----------------------|

Solo: can be heard slightly but you'll get what I mean.

E------------------------------------------|
B-12--12----12-12-12-10-9------7-9---7-9-5-|
G------------------------------------------|
D------------------------------------------|
A------------------------------------------|
E------------------------------------------|

Guitar heard after second chorus while the lead is playing:
E----------------------------------------------------------------|
B-0-0-0-0-0-0-0-0-0-0-0-5-5-5-5-2-2-2-2-2-2-2-2-2-2-2-2-2-2-2-2--| X2
G----------------------------------------------------------------|
D----------------------------------------------------------------|
A----------------------------------------------------------------|
E----------------------------------------------------------------|

E------I     I------I    ------I    -------I    ----------|I
B-0----I     I--5---I    --2---I    --5----I    -9--------|I
G------I X12 I------I x4 ------I x8 -------I X4 -------I--| X4
D------I     I------I    ------I    -------I    ----------|I
A------I     I------I    ------I    -------I    ----------|I
E------I     I------I    ------I    -------I    ----------|I

And so on.

If I Could Tabs by Bombay Bicycle Club V4

 Song originally wrote by Jack Steadman.
Lead singer of Bombay Bicycle Club when he was younger.
I noticed that I tabbed it wrong so this is my second try.
I hope this helps you guys.

Tuning:Standard
/ = Hammer On

Intro/verse
e---------------------------------------|
B------0--------------------------------|
G---------------0--------2--------0-----|
D----0--0-0---0--0-0---0--0-0---0---0-0-|
A-0/2------0/2----2-0/2------0/2-----2--|
E-----3--3-----0--------3--3-----0------|

Pre-Chorus
e-------------|
B-------------|
G------0------|
D----0--0-0---|
A-0/2----2-2--|
E-----0-----0-|

Chorus
e---------------------------------------------------------------------|
B---------------------------------------------------------------------|
G--9-9-9-9-9----7-7-4-4-4-4-4-0-2-0--4-4-4-4-4-0-2-0--4-4-4-4-4-0-2-0-|
D---------------------------------------------------------------------|
A-------------5-------------------------------------------------------|
E-7-7-7-7-7-7--5-5-3-3-3-3-3-3-0-2--3-3-3-3-3-3-0-2--3-3-3-3-3-3-0-2--|

Solo
e---------------------------------|
B-7-8-10-8-7-5-7------------------|
G---------------7-5-4-5-SLIDE-7-4-|
D---------------------------------|
A---------------------------------|
E---------------------------------|

Lyrics:

When we both change, I will explain
I will explain.
But I see you asleep, you seem at peace
So I will speak.

From what ive heard,
Your heart has burned.
Its ashes blow, so its my turn.
From what ive seen, one can dream.
That you and me, can wipe the slate clean.

Night turns all dark, leaves its mark upon my heart.
So I wait for the sun, to fill my lungs with its songs.

From what ive heard,
Your heart has burned.
Its ashes blow, so its my turn.
From what ive seen, one can dream.
That you and me, can wipe the slate clean.
And from what ive learned, it wont hurt.
Until you've said the three famous words.
If I could go, back.
If I could go back
If I could go back
If I could go back.

Your Mother chords – Keston Cobblers Club

  Sam de Brunner
Tuning: Standard
Capo: 3
Chords relative to capo


          C 
From the pause you’re stalling
 C F C 
holding on to pass the time
      G C 
it’s more than you can find
         Am  
and the laws will hold
        C F C 
though you will find your way around
   G C 
until you hit the ground


 C 
Oh it’s easy to bore you
      F Am C Am 
it’s not enough to saw you in half
 F C 
it’s just enough to laugh
 C 
And there’s reason to smile
 C F Am 
when you are ten feet in the sky
     C Am 
you want to dance
 F C 
well now you have your chance


       G F C 
Cause she’s been your Mother Ohhhhh 
    G F C 
Oh she’s been your Mother Ohhhhh 
    G F C 
Oh she’s been your Mother Ohhhhh 
    G F Fadd9 F C 
Oh she’s been your Mother Ohhhhh, Ohhhhhhh, Ohhh


 C  
And in your faith and in your silence
 C F C 
there is something that you want to say
 G C 
but each time in your way
           Am 
There’s a special kind of violence
          C F C 
and it’s changed the way you play the game
     G C 
but this time you’re the same


       G F C 
Cause she’s been your Mother Ohhhhh 
    G F C 
Oh she’s been your Mother Ohhhhh 
    G F C 
Oh she’s been your Mother Ohhhhh 
    G F Fadd9 F C 
Oh she’s been your Mother Ohhhhh, Ohhhhhhh, Ohhh
                           F Fadd9 F C 
                          Ohhhhh, Ohhhhhhh, Ohhh


 C  
And in your faith and in your silence
 C F C 
there is something that you want to say
 G C 
but each time in your way
           Am 
There’s a special kind of violence
          C F C 
and it’s changed the way you play the game
     G C 
but this time you’re the same


       G F C 
Cause she’s been your Mother Ohhhhh 
    G F C 
Oh she’s been your Mother Ohhhhh 
    G F C 
Oh she’s been your Mother Ohhhhh 
    G F Fadd9 F C 
Oh she’s been your Mother Ohhhhh, Ohhhhhhh, Ohhh
                           F Fadd9 F C 
                          Ohhhhh, Ohhhhhhh, Ohhh

Cigarettes In The Theatre chords – Two Door Cinema Club V4

 Intro:  Am ,  C ,  G ,  Am ,  C ,  G Am C 
   It starts in the theatre
              G 
A night of encounters
 Am C 
   If I hadn't been there
              G 
If not for a cigarette..

 Em C 
   And you could see it change
 G 
Look past the blinding light
                              D 
   Look past the blinding light..
 Em C 
   Just keep talking on...
 G 
Tell me your favourite things
                              D 
   Tell me your favourite things..

 Am C G 
   Difference in opinion was never an issue
 Am C 
   Collect all your questions
                           G 
Because this time we've all night..

 Em C 
   And you could see it change
 G 
Look past the blinding light
                              D 
   Look past the blinding light..
 Em C 
   Just keep talking on...
 G 
Tell me your favourite things
                              D 
   Tell me your favourite things..

Rainbow Danger Club – Human Cannonball chords

 Human Cannonball: 


Verse:

What are you building down there in the dark? 
 F A# F 
Every night alone under candle light and spark, concealed
 F A# F C 
in the ting tang of metals and the melting of steel. 
             F A# Dm 
If something should go wrong we will have to carry you away, 
        F A# F 
our only son.                          
                  A# F A#                                                  

Chorus:
Ladies and gentlemen,         may I present to you not a lion in a cage, 
 F C A# F C             
not a juggler or swallower of blades       but the Human Cannonball. 
  A# F C A# C C F 

Verse: 
My sister was an acrobat, an artist of the swings. 
My father tamed the beasts and was the master of the three circus rings. 
When my brother walked the tight rope, no one made a sound, 
but he tumbled in the spotlight. Echoes cried when he hit the ground. 
We'll miss you. 

Chorus:
I am the Human Cannonball, 
not a lion in your cage, 
not a juggler or swallower of blades. 
I will fly to painted stars.

Too Short Players Club album Tabs by Eazy-e

 =========================================================================
h-hammer on
p-pull off
r- let the note ring out
=========================================================================
This just repeats most of the whole song.

e|-----7-----------------------------------------------------------------------|
B|-----7-----------------------------------------------------------------------|
G|----------------8h9p8---6r---------------------------------------------------|
D|-----------------------------------------------------------------------------|
A|-----------------------------------------------------------------------------|
E|-----------------------------------------------------------------------------|

Too Short Players Club Tabs by Eazy-e

 =========================================================================
h- hammer on
p- pull off
r- let the note ring
=========================================================================
Lead part:

e|-------2-------------------------------------------------------------------------|
B|-------3-------2h3p--0r----------------------------------------------------------|
G|------4--------------------------------------------------------------------------|
D|------4--------------------------------------------------------------------------|
A|------2--------------------------------------------------------------------------|
E|------2--------------------------------------------------------------------------|

Rhythm part:

Bm A G