Tag: coal

Fade Away Tabs – Coal Chamber

 |--------------------------------------------------------------------------------------------------------|
|                                        COAL CHAMBER - FADE AWAY                                        |
|                                            Rivals (2015)                                         |
|--------------------------------------------------------------------------------------------------------|

                   If you have questions or corrections feel free to send me a message:
                                http://profile.ultimate-guitar.com/godspeedy/
                                    https://www.facebook.com/Godspeedy14
                     
                Also, check out my Youtube channel: http://www.youtube.com/user/Godspeedy14

                                         Tuning: 6 string AEADF#B 
                                                    
*********************************************GUITAR NOTATIONS*********************************************
*                                                                                                        *
*                                      | *   palm mute           |                                       *
*                                      | p   pull-off            |                                       *
*                                      | x   Mute note           |                                       *
*                                      | ..  let ring            |                                       *
*                                                                                                        *
**********************************************************************************************************

|--------------------------------------------------------------------------------------------------------|
|                                          INTRO (00:00-00:10)                                           |
|--------------------------------------------------------------------------------------------------------|

Guitar 1 (w/ dist and reverb/delay)

    ..........................................................................
 B|-22-----22-----22--19-----19-----19--|-20-----20-----20--19-----19-----19--|
F#|-------------------------------------|-------------------------------------|
 D|-----19-----19---------19-----19-----|-----19-----19---------19-----19-----| x2
 A|-------------------------------------|-------------------------------------|
 E|-------------------------------------|-------------------------------------|
 A|-------------------------------------|-------------------------------------|

|--------------------------------------------------------------------------------------------------------|
|                                          VERSE (00:10-00:20)                                           |
|--------------------------------------------------------------------------------------------------------|

Guitars 1 and 2 (w/ dist)

 B|----------------------------------------------|----------------------------------------------|
F#|----------------------------------------------|----------------------------------------------|
 D|----------------------------------------------|----------------------------------------------| x2
 A|----------------------------------------------|----------------------------------------------|
 E|----------------------------------------------|----------------------------------------------|
 A|-3--2--0--3--2--0--3--2--0--3--2--0--3--2--0--|-15-14-0--15-14-0--15-14-0--15-14-0--15-14-0--|

|--------------------------------------------------------------------------------------------------------|
|                                          CHORUS (00:20-00:30)                                          |
|--------------------------------------------------------------------------------------------------------|

Guitars 1 and 2 (w/ dist)

 B|-----------------

Over My Head Tabs – Coal Chamber

 |--------------------------------------------------------------------------------------------------------|
|                                       COAL CHAMBER - OVER MY HEAD                                      |
|                                            Rivals (2015)                                         |
|--------------------------------------------------------------------------------------------------------|

                   If you have questions or corrections feel free to send me a message:
                                http://profile.ultimate-guitar.com/godspeedy/
                                    https://www.facebook.com/Godspeedy14
                     
                Also, check out my Youtube channel: http://www.youtube.com/user/Godspeedy14

                                         Tuning: 6 string BEADF#B 
                                                    
*********************************************GUITAR NOTATIONS*********************************************
*                                                                                                        *
*                                      | *   palm mute           |                                       *
*                                      | s   slide               |                                       *
*                                      | x   Mute note           |                                       *
*                                                                                                        *
**********************************************************************************************************

|--------------------------------------------------------------------------------------------------------|
|                                          INTRO (00:00-00:14)                                           |
|--------------------------------------------------------------------------------------------------------|

Guitars 1 and 2 (w/ dist)

 B|--------------------------|----------------------------|
F#|--------------------------|----------------------------|
 D|--------------------------|----------------------------|
 A|-----------5--5------4--4-|------------5--5------4--4--|
 E|-2--2------5--5------4--4-|-----2------5--5------4--4--|
 B|-0--0--0-0-3--3--0-0-2--2-|-0-0-0--0-0-3--3--0-0-2--2--|\
          * *       * *        * *    * *       * *         x2
 B|---------------------------|---------------------------|/
F#|---------------------------|---------------------------|
 D|---------------------------|---------------------------|
 A|------------5--5------4--4-|------------9--9--9--9--9--|
 E|-----2------5--5------4--4-|-----2------9--9--9--9--9--|
 B|-0-0-0--0-0-3--3--0-0-2--2-|-0-0-0--0-0-7--7--7--7--7--|
    * *    * *       * *        * *    * *

|--------------------------------------------------------------------------------------------------------|
|                                          VERSE (00:14-00:42)                                           |
|--------------------------------------------------------------------------------------------------------|

Guitars 1 and 2 (w/ dist)

 B|-------------------------|-----------------------|
F#|-------------------------|-----------------------|
 D|-------------------------|-----------------------|
 A|-------------------------|-----------------------|
 E|-------------------------|-----------------------|
 B|-0--8--8--0--8--0------0-|-8--0--8--0--8--8------|\
                                                      x4
 B|-------------------------|-----------------------|/
F#|-------------------------|-----------------------|
 D|-------------------------|-----------------------|
 A|-------------------------|-----------------------|
 E|-------------------------|-----------------------|
 B|-8--8--8--8--8--8------8-|s7--7--7--7--7--7------|

|-------------------------------------------------------------------------------------------------------

Oh Coal Black Smith chords – Current-93

 Artist : Current 93
Title : Oh Coal Black Smith

Verse:

 Em C   x4

 Em C 
Oh she looked out of the window

 Em C 
As white as any milk

 Em C 
But he looked in the window

 Em C 
As black as any silk

 Em C 
"Hello hello hello hello

 Em C 
Hello you coal black smith

 Em C 
Oh what is your silly song?

 Em C 
You shall never change my maiden name

 Em C 
That I have kept so long

 Em C 


Chorus:

 Em C 
I'd rather die a maid, yes"

 Em C 
But then she said

 Em C 
"And be buried in my grave, yes"

 Em C 
And then she said

 Am 
"Than I'd have such a nasty, husky, dusky, musty, fusty coal black smith,

 Em C  x2

Verse:

 Em C 
A maiden will I die"

 Em C Em C 
A maiden will I die"

 Em C Em C 
Then she became a duck

 Em C 
A duck all on the stream

 Em C 
And he became a water dog

 Em C Em C 
And fetched her back again

 Em C  x2

 Em C 
Then she became a hare

 Em C 
A hare all on the plain

 Em C 
And he became a greyhound dog

 Em C Am 
And fetched her back again

 Em C 
Then she became a fly

 Em C 
A fly all in the air

 Em C 
And he became a spider

 Em C Em C 
And fetched her to his lair

 Em C  

Chorus:

 Em C 
I'd rather die a maid 

 Em C 
But then she said

 Em C 
"And be buried in my grave 

 Em C 
And then she said

 Am 
"That I'd have such a nasty, husky, dusky, musty, fusty coal black smith,

 Em C  x2

:|When you reach this point, repeat everything above

Verse:

 Em C 
A maiden will I die"   x7

 Em C Em C 
Oh she looked out of the window

 Em C 
As white as any milk

 Em C 
But he looked in the window

 Em C 
As black as any silk

 Em C 
"Hello hello hello hello

 Em Am 
Hello you coal black smith

 Am 
Oh what is your silly song?

 Am 
You shall never change my maiden name

 Am Em 
That I have kept so long

 Em C  x2


Chorus:

 Em C 
I'd rather die a maid 

 Em C 
But then she said

 Em C 
"And be buried in my grave 

 Em C 
And then she said

 Am 
"That I'd have such a nasty, husky, dusky, musty, fusty coal black smith,

 Em C 
A maiden will I die" 


Verse:

 Em C 
Then she became a duck

 Em C 
A duck all on the stream

 Em C 
And he became a water dog

 Em C 
And fetched her back again

 Em C 
Then she became a hare

 Em C 
A hare all on the plain

 Em C 
And he became a greyhound dog

 Am 
An

Joel The Lump Of Coal chords – Killers V2

 The Killers - Joel, The Lump Of Coal feat. Jimmy Kimmel
Flat tune     A/C#  = x4222x    B7/D#  = xx1202    D/F#  = 20023x
 E/G#  = 422400  A#dim7  = x12020   D7/C  = x34x3x   A7  = x02020

Verse 1
       D A/C# Bm A 
Some time ago, at Santa's place up in the old North Pole
        Em Bm E A 
There lived a lump of anthracite whose parents called him Joel
  D A Bm F#m 
Joel, Joel, the lump of coal happy as a lump can be
     G D G A 
He just wants to keep Santa warm and make the elves cozy

      D A/C# Bm A 
But Santa Claus had other plans for Joel one fateful day
  Em Bm E A 
Joel, you're just the lump I need come join me on my sleigh
  D A Bm F#m 
Joel, Joel, the lump of coal heart leapt up with joy
       G D G A B7/D# 
I'll soon be Santa's present to a lucky girl or boy

Bridge 
         Em D A G 
 We'll laugh and play together and hold each other tight
    D A G D/F# 
 Snuggle under clean white sheets when we go to sleep at night
        Em D A G 
 Then Santa's elves all laughed at Joel you're in for a surprise
          D A G D/F# 
 You're not a special Christmas gift you're just a booby prize
        Em D A G 
 What kid would ever want you you're filthy as can be
   D A G 
 Now you have to go and live with one who's been naughty

      D G E/G# A A#dim7 Bm 
 But I make heat, poor Joel cried and electricity
                  D7/C A7 
 You pollute the air with CO2 and mercury


Verse 2
   D A Bm F#m 
 Joel, Joel, the lump of coal fell down upon his knees
     G D G A 
 I don't wanna live with a naughty kid don't make me, Santa, please
       D A/C# Bm A 
 But Santa laughed his jolly laugh  Ho, Ho, you stupid lump
          Em Bm E A 
 You're just the thing to teach this brat that Santa ain't no chump


     D A/C# Bm A 
 So off they flew and, before he knew Joel was in a sack
       Em Bm E A 
 He cried and yelled to Santa Claus why don't we just go back

Bridge 
       Em D 
 And then came Christmas morning
        A G           
 And, much to Joel's surprise (Much to Joel's surprise)
      D A            
 He saw a boy with the saddest face
       G D/F# 
 And tears were in his eyes (Tears were in his eyes)
     Em D 
 He picked Joel up and held him
       A G 
 And said you can be my friend (Hey man, let's be friends)
      D A 
 I would've liked some presents but
           G D/F# 
 You're what Santa chose to send (Santa chose to send)
        Em D 
 It's true, I've been a naughty boy
       A G 
 And maybe that's a sin (Maybe that's a sin)
    

Joel The Lump Of Coal chords – Killers

 The Killers - Joel, The Lump Of Coal feat. Jimmy Kimmel
Flat tune     A/C#  = x4222x    B7/D#  = xx1202    D/F#  = 20023x
 E/G#  = 422400  A#dim7  = x12020   D7/C  = x34x3x   A7  = x02020

Verse 1
       D A/C# Bm A 
Some time ago, at Santa's place up in the old North Pole
        Em Bm E A 
There lived a lump of anthracite whose parents called him Joel
  D A Bm F#m 
Joel, Joel, the lump of coal happy as a lump can be
     G D G A 
He just wants to keep Santa warm and make the elves cozy

      D A/C# Bm A 
But Santa Claus had other plans for Joel one fateful day
  Em Bm E A 
Joel, you're just the lump I need come join me on my sleigh
  D A Bm F#m 
Joel, Joel, the lump of coal heart leapt up with joy
       G D G A B7/D# 
I'll soon be Santa's present to a lucky girl or boy

Bridge 
         Em D A G 
 We'll laugh and play together and hold each other tight
    D A G D/F# 
 Snuggle under clean white sheets when we go to sleep at night
        Em D A G 
 Then Santa's elves all laughed at Joel you're in for a surprise
          D A G D/F# 
 You're not a special Christmas gift you're just a booby prize
        Em D A G 
 What kid would ever want you you're filthy as can be
   D A G 
 Now you have to go and live with one who's been naughty

      D G E/G# A A#dim7 Bm 
 But I make heat, poor Joel cried and electricity
                  D7/C A7 
 You pollute the air with CO2 and mercury


Verse 2
   D A Bm F#m 
 Joel, Joel, the lump of coal fell down upon his knees
     G D G A 
 I don't wanna live with a naughty kid don't make me, Santa, please
       D A/C# Bm A 
 But Santa laughed his jolly laugh  Ho, Ho, you stupid lump
          Em Bm E A 
 You're just the thing to teach this brat that Santa ain't no chump


     D A/C# Bm A 
 So off they flew and, before he knew Joel was in a sack
       Em Bm E A 
 He cried and yelled to Santa Claus why don't we just go back

Bridge 
       Em D 
 And then came Christmas morning
        A G           
 And, much to Joel's surprise (Much to Joel's surprise)
      D A            
 He saw a boy with the saddest face
       G D/F# 
 And tears were in his eyes (Tears were in his eyes)
     Em D 
 He picked Joel up and held him
       A G 
 And said you can be my friend (Hey man, let's be friends)
      D A 
 I would've liked some presents but
           G D/F# 
 You're what Santa chose to send (Santa chose to send)
        Em D 
 It's true, I've been a naughty boy
       A G 
 And maybe that's a sin (Maybe that's a sin)
    

Harbor Drive Hookup – Rollin Coal chords

 Rollin' Coal, Written by Harbor Drive Hookup

INTRO
 Em Em G Em C D Em Em Am Em C Bm 

CHORUS
 Em 
Rollin Coal
            Em G 
That's the only life he'll know
 Em 
Pullin' a load
          C D 
Down the Highways and back roads
 Em 
He goes it alone
          Em Am 
He knows more than the map knows
 Em 
Rollin Coal
           C Bm 
Where you need him that's he goes

VERSE 01
 Em G D C Em 
Rollin Coal Down 94
He feels like he's been here before
He's traveled every road across the map

Slowin low as he passed the toll
Creepin past that state patrol
He knows every stakeout every trap

CHORUS

VERSE 02
Rollin Coal Down 70 
He's high in Colorado feeling heavenly
If he ever settles down that's where he's at

He loves California Loves Tennessee
Comes from Minnesota Originally
But Edwards that is where he'll hang his hat

CHORUS

SOLO
 Em G D C Em 

CHORUS

Getting Coal chords – The Pipettes

 G G Ami 
Mummy said that I've been bad
 C 
(OK, my darling, don't look sad)
 G Ami 
It's Christmas Eve, I want to see
 C 
The kind of gifts I might have had...

 Ami G 
But what did I do wrong?
                                          Bmi 
You never listened to your mother's good advice
            G 
What did I do?
                                               C 
You go out dancing and you come home late at night
              D 
What did I do?

Must have done something bad
 G Ami 
Cos I'm getting coal
 Emi G 
Cos I've been a bad girl

 G Ami 
Christmas Day, think of me
 C 
When sleigh bells ring and people say
 G Ami 
I hope you had all you want (Merry Christmas!!!)
 C 
I'm getting coal my mother says
 G Ami 
Cos I've been a bad girl
 Emi D 
(Cos she's been a bad girl)x3

 Ami G 
But what did I do wrong?
                                                    Bmi 
You're disrespectful and you're squandering your youth
 G 
What did I do?
                                                  C 
You've been with boys and you never tell the truth
 G 
What did I do?
                                                  Bmi 
You're hanging round with people practically uncouth
 G 
What did I do?
                                                               C 
I'm sure there's more, but that is all for which there is proof
 D 
What did I do?

Must have done something bad
 G Ami 
Cos I'm getting coal
 Emi D 
Cos I've been a bad girl
(Cos she's been a bad girl x4)

But it's Christmas!
But it's Christmas!
            Emi D 
Won't you forgive me even now
                           G 
At this forgiving time of year?