Tag: coffee

Coffee Shop Soundtrack Acoustic Tabs – All Time Low Vsion 3

 Coffee Shop Soundtrack (acoustic version)
Artist: All Time Low
 Put Up or Shut Up (2006)

Tuning: D#A#F#C#G#D#

Given that this song is played a little different in every acoustic performance done by the band, 
I put this tab together using bits and pieces of several of their performances, including some addition
of my own, to achieve the best possible sound. For reference, it's closest this version of the song:



Intro:
Eb|-0-0-0-0--0~0-0-0-0-0-0-0--0-0-0-0--0~0-0-0-0-0-0-0--|
Bb|-0-0-0-0--0~0-0-0-0-0-0-0--0-0-0-0--0~0-0-0-0-0-0-0--|
Gb|-6-6-6-6--2~2-2-4-4-4-4-4--6-6-6-6--2~9-9-8-8-8-8-8--|
Db|-6-6-6-6--2~4-4-6-6-6-6-6--6-6-6-6--2~7-7-6-6-6-6-6--| 
Ab|-4-4-4-4--0~x-x-x-x-x-x-x--4-4-4-4--0~x-x-x-x-x-x-x--| 
Eb|-x-x-x-x--0~x-x-x-x-x-x-x--x-x-x-x--0~x-x-x-x-x-x-x--|

Eb|-0-0-0-0-0-0--0-0-0-0-0-0-0-0--0-0~|
Bb|-0-0-0-0-0-0--0-0-0-0-0-0-0-0--0-0~|
Gb|-1-1-1-1-1-1--1-1-4-4-4-4-4-4--4-4~|
Db|-2-2-2-2-2-2--2-2-1-1-1-1-1-1--1-1~|
Ab|-2-2-2-2-2-2--2-2-2-2-2-2-2-2--2-2~| 
Eb|-0-0-0-0-0-0--0-0-x-x-x-x-x-x--x-x~|


Eb|-0-0-0-0--0~~~-0--0--0--0--0--0--0---0-0-0-0--0~0-0-0-0-0-0-0--|
Bb|-0-0-0-0--0~~~-0--0--0--0--0--0--0---0-0-0-0--0~0-0-0-0-0-0-0--|
Gb|-6-6-6-6--13~~-13-13-13-13-13-13-13--6-6-6-6--2~9-9-8-8-8-8-8--|
Db|-6-6-6-6--11~~-11-11-11-11-11-11-11--6-6-6-6--2~7-7-6-6-6-6-6--| 
Ab|-4-4-4-4--x~~~-x--x--x--x--x--x--x---4-4-4-4--0~0-0-0-0-0-0-0--| 
Eb|-x-x-x-x--x~~-~x--x--x--x--x--x--x---x-x-x-x--0~x-x-x-x-x-x-x--|
 

Eb|-0-0-0-0-0-0--0-0-0-0-0-0-0--0-0~|
Bb|-0-0-0-0-0-0--0-0-0-0-0-0-0--0-0~|
Gb|-1-1-1-1-1-1--1-1-4-4-4-4-4--4-4~|
Db|-2-2-2-2-2-2--2-2-4-4-4-4-4--4-4~|
Ab|-2-2-2-2-2-2--2-2-2-2-2-2-2--2-2~| 
Eb|-0-0-0-0-0-0--0-0-x-x-x-x-x--x-x~|


Verse 1:
Should I write myself out of the history books...for every chance you took?

Eb|-0-0-0-0--0~0-0-0-0-0-0-0--0-0-0-0--0~0-0-0-0-0-0-0--0-0-0-0--0~0-0-0-0-0-0-0--0-0-0-0--|
Bb|-0-0-0-0--0~0-0-0-0-0-0-0--0-0-0-0--0~0-0-0-0-0-0-0--0-0-0-0--0~0-0-0-0-0-0-0--0-0-0-0--|
Gb|-6-6-6-6--2~2-2-4-4-4-4-4--6-6-6-6--2~9-9-8-8-8-8-8--6-6-6-6--2~2-2-2-2-2-2-2--4-4-4-4--|
Db|-6-6-6-6--2~4-4-6-6-6-6-6--6-6-6-6--2~7-7-6-6-6-6-6--6-6-6-6--2~2-2-2-2-2-2-2--4-4-4-4--| 
Ab|-4-4-4-4--0~x-x-x-x-x-x-x--4-4-4-4--0~x-x-x-x-x-x-x--4-4-4-4--0~0-0-0-0-0-0-0--2-2-2-2--| 
Eb|-x-x-x-x--0~x-x-x-x-x-x-x--x-x-x-x--0~x-x-x-x-x-x-x--x-x-x-x--0~0-0-0-0-0-0-0--x-x-x-x--|

Eb|-0~0-0-0-0-0-0-0--|
Bb|-0~0-0-0-0-0-0-0--|
Gb|-2~2-2-2-2-2-2-2--|
Db|-2~2-2-2-2-2-2-2--|
Ab|-0~0-0-0-0-0-0-0--| 
Eb|-0~0-0-0-0-0-0-0--|


Don't get me wrong...take the hint, someday

Eb|-0-0-0-0--0~~0--0--0--0--0--0--0---0-0-0-0--0~0-0-0-0-0-0-0--|
Bb|-0-0-0-0--0~~0--0--0--0--0--0--0---0-0-0-0--0~0-0-0-0-0-0-0--|
Gb|-6-6-6-6--13~13-13-13-13-13-13-13--6-6-6-6--2~2-2-4-4-4-4-4--|
Db|-6-6-6-6--11~11-11-11-11-11-11-11--6-6-6-6--2~4-4-6-6-6-6-6--| 
Ab|-4-4-4-4--x~~x--x--x--x--x--x--x---4-4-4-4--0~0-0-0-0-0-0-0--| 
Eb|-x-x-x-x--x~~x--x--x--x--x--x--x---x-x-x-x--0~x-x-x-x-x-x-x--|

I'm sure I'll get the picture, and stop waiting up

Eb|-0-0-0-0--0~0-0-0-0-0-0-0--0-0-0--x-x-x-x--|
Bb|-0-0-0-0--0~0-0-0-0-0-0-0--0-0-0--x-x-x-x--|
Gb|-6-6-6-6--2~2-2-2-2-2-2-2--4-4-4--x-x-x-x--|
Db|-6-6-6-6--2~2-2-2-2-2-2-2--1-1-1--x-x-x-x--| 
Ab|-4-4-4-4--0~0-0-0-0-0-0-0--2-2-2--x-x-x-x--| 
Eb|-x-x-x-x--0~0-0-0-0-0-0-0--x-x-x--x-x-x-x--|

NOTE: Palm muted strokes at the end are optional- you can just continue by playing the final chord for 
an extra beat into the chorus. I just think it sounds good with it!

Chorus:

When it all comes down....carry home?

Eb|-0-0-0-0--0-0-0-0--0-0-0-0--0-0-0-0--0-0-0-0--|
Bb|-0-0-0-0--0-0-0-0--0-0-0-0--0-0-0-0--0-0-0-0--|
Gb|-1-1-1-1--2-2-2-2--6-6-6-6--4-4-4-4--2-2-9-8--|
Db|-2-2-2-2--2-2-2-2--6-6-6-6--4-4-4-4--2-2-7-6--|
Ab|-2-2-2-2--0-0-0-0--4-4-4-4--2-2-2-2--0-0-x-x--|
Eb|-0-0-0-0--0-0-0-0--x-x-x-x--x-x-x-x--0-0-x-x--|

The remains of my wasted youth....shaking in waiting for something more

Eb|-0-0-0-0--0-0-0-0--0-0-0-0--0-0-0-0--0-0-0~--|
Bb|-0-0-0-0--0-0-0-0--0-0-0-0--0-0-0-0--0-0-0~--|
Gb|

Girl At The Coffee Shop chords – Jeff Bernat

 Learned By Ear :)
Link to song: https://www.youtube.com/watch?v=GIZvZlks_AE
CAPO 4

Chords:
     Cmaj7 Am7 Fmaj7 Aadd9 E 
e|---x----x----0----3----x-----|
B|---0----1----1----1----1-----|
G|---0----0----2----2----x-----|
D|---2----2----3----3----x-----|
A|---3----0----x----x----x-----|
E|---x----x----x----x----x-----|

Intro: 
 Cmaj7 Am7 Fmaj7 E Cmaj7 Am7 Aadd9 E 
[x2]

[Verse]:
     Cmaj7 
So the other day
                   Am7 
I was chilling at Starbucks
      Fmaj7 E 
Down the street
   Cmaj7 
I saw a lady with
                Am7 Aadd9 
some books and coffee
 E Cmaj7 
And she was so beautiful
                     Am7 Fmaj7 
With headphones and glasses on
   E 
I didn't know
 Cmaj7 
what to do or say
              Am7 
Hoping she'd come
               Aadd9 
right through my way
      E Cmaj7 
It s those moments
             Am7 Fmaj7 
It s those regrets
          E Cmaj7 
When you wish you could
                            Am7 Aadd9 
rewind the times that you messed up
   E Cmaj7 
I didn t even say hello
               Am7 Fmaj7 E 
I didn t even catch her name
     Cmaj7 
She looked right at me
                    Am7 Aadd9 
Smiled and walked away
       E 
And I think that


[Chorus]:
 Cmaj7 Am7 
I am falling for the girl
    Fmaj7 E 
at the coffee shop
 Cmaj7 
Don t know her name
            Am7 Aadd9 E 
But it's her that I am thinking of
 Cmaj7 
Never would've guessed that
      Am7 Fmaj7 E 
I d fall for a stranger
 Cmaj7 
Never thought that
              Am7 Aadd9 E Cmaj7 Am7 
I'd fall in love with the girl at the coffee shop yeah
               Fmaj7 E Cmaj7 Am7 Aadd9 E 
With the girl at the coffee shop, yeah


[Bridge]:
     Cmaj7 
So I went back and I didn t see her there
          Am7 Fmaj7 
Just the smell of chocolate and caramel
 E Cmaj7 
in the air sitting down
                        Am7  
As time passes by with tear drops in eyes
  Aadd9 E Cmaj7 
with sadness in size

No one replies 70 minutes have passed
        Am7 
Have you seen a girl
                 Fmaj7 E 
with headphones and some books may I ask
       Cmaj7 
I knew I should've approached her with the chance that I had
              Am7 
Or at least, asked for her number
 Aadd9 E 
I can type it in my keypad
 Cmaj7 
  All of a sudden beauty walks in
        Am7 
with her headphones on
     Fmaj7 E 
And her books in her hand
 Cmaj7 
  Walks up to the register
                             Am7 
cinnamon dolce latte with a cookie on the side
     Aadd9 E 
and uh make that drink frothy
 Cmaj7 
I'm slowly walking up to her as I approached the register
 Am7 Fmaj7 
 Looking at the book she has
              E 
Mitch alboms the author
   Cmaj7 
I said How You Doin' Hi My Name Is Jeffery
      Am7

Black Coffee chords – Ella Fitzgerald V2

 Intro
 C Gm C Gm  ...


Verse 1
     C Gm 
I'm feeling mighty lonesome
 C Gm 
Haven't slept a wink
   C Gm 
I walk the floor & watch the door
     C Gm 
And in between I drink
 F7 
Black coffee
 F7 C Dm Em Bb F 
Love's a hand-me-down brew
             Gm Dm9 
Well, I'll never know a Sunday
 F7 G C Gm C Gm 
In this weekday rule


Verse 2
    C Gm 
I'm talking to the shadows
    C Gm 
One o'clock to four
    C Gm 
And oh how slow the moments go
    C Gm 
When all I do is pour 
 F7 
Black coffee
 F7 C Dm Em Bb F 
Since the blues caught my eye
             Gm Dm9 
Well I'm hanging out on Monday
 F7 G C Gm C Gm 
My Sunday dreams to dry


Bridge
         F Cm 
Well, a man is born to go on lovin'
     Fm Ab C 
A woman's born to weep & fret
         Ab Fm 
To stay home & tend her lovin'
            Ab 
And drown her past regrets
         G 
In coffee & cigarettes


Verse 3: 
    C Gm 
Alone all the morning
    C Gm 
Mourning all the night
    C Gm 
And, in between, it's nicotine
    C Gm 
And not much heart to fight
 F7 
Black coffee
 F7 C Dm Em Bb F 
Feeling low as the ground
             Gm Dm9 
It's drivin' me crazy, this waiting for my baby
 F7 G C Gm C Gm 
To maybe come around


Bridge (Repeat):
         F Cm 
Well, a man is born to go on lovin'
     Fm Ab C 
A woman's born to weep & fret
         Ab Fm 
To stay home & tend her lovin'
            Ab 
And drown her past regrets
         G 
In coffee & cigarettes


Verse 3 (Repeat):
    C Gm 
Alone all the morning
    C Gm 
Mourning all the night
    C Gm 
And, in between, it's nicotine
    C Gm 
And not much heart to fight
 F7 
Black coffee
 F7 C Dm Em Bb F 
Feeling low as the ground
             Gm Dm9 
It's drivin' me crazy, this waiting for my baby
 F7 G C Gm C Gm 
To maybe come around


Outro:
 Am 
My nerves have gone to pieces
 Cdim7 
My hair is turning grey
 F7 
All I do is drink black coffee
 G7 Cm      
Since my man's gone away...


 C Gm C Gm    (instrumental, fade out)

Coffee Tabs – Gnarwolves

 Artist: Gnarwolves
 Cru/The Chronicles of Gnarnia
Track: Coffee
Tuning: Half step down (D#G#C#F#A#D# OR EbAbDbGbBbeb)
NB: . means palm mute, ~ means vibrato, b means bend

0:00-0:23
eb|------------------------|------------------------|
Bb|------------------------|------------------------|
Gb|------------------------|4-4-4-------------------|
Db|-5-5---5-5-5--5-5-5---5-|4-4-4-2-2-2-2-2-2-4-4-4-|
Ab|-5-5---5-5-5--5-5-5---5-|2-2-2-0-0-0-4-4-4-5-5-5-|
Eb|-3-3---3-3-3--3-3-3---3-|------------------------|

eb|------------------------|------------------------|
Bb|------------------------|------------------------|
Gb|------------------------|4-4-4-------------------|
Db|-5-5---5-5-5--5-5-5---5-|4-4-4-2-2-2-4-4-4-4-4-4-|
Ab|-5-5---5-5-5--5-5-5---5-|2-2-2-0-0-0-4-4-4-4-4-4-|
Eb|-3-3---3-3-3--3-3-3---3-|------------2-2-2-2-2-2-|

eb|------------------------|------------------------|
Bb|------------------------|------------------------|
Gb|------------------------|4-4-4-------------------|
Db|-5-5---5-5--------------|4-4-4-2-2-2-2-2-2-4-4-4-|
Ab|-5-5---5-5-5--5-5-5---5-|2-2-2-0-0-0-4-4-4-5-5-5-|
Eb|-3-3---3-3-3--3-3-3---3-|------------------------|
              .  . . .   . 
eb|------------------------|------------------------|
Bb|------------------------|------------------------|
Gb|------------------------|4-4-4-------------------|
Db|-5-5---5-5-5--5-5-5---5-|4-4-4-2-2-2-4---4---4---|
Ab|-5-5---5-5-5--5-5-5---5-|2-2-2-0-0-0-4---4---4---|
Eb|-3-3---3-3-3--3-3-3---3-|------------2---2---2---|

eb|------------------------|------------------------|
Bb|------------------------|------------------------|
Gb|------------------------|------------------------|
Db|-4---4---4---4---4------|-5----------------------|
Ab|-4---4---4---4---4--5-5-|-5----------------------|
Eb|-2---2---2---2---2--3-3-|-3----------------------|
                       . .
Or instead of playing those last 244xxx, play eb|-2-2-2-| repeatedly

0:23-0:42
eb|------------------------|------------------------|
Bb|------------------------|------------------------|
Gb|-------4b--------4b-----|---4b~~~----------------|
Db|------------------------|------------------------|
Ab|-2---2-----0---0--------|------------------------|
Eb|---------------------3--|-3----------------------|

eb|------------------------|-------------------0h2p0|
Bb|------------------------|-----------------3------|
Gb|-------4b--------4b-----|---4---4-4-4-4-4--------|
Db|------------------------|------------------------|
Ab|-2---2-----0---0--------|------------------------|
Eb|---------------------3--|-3----------------------|

eb|------------------------|------------------------|
Bb|------------------------|------------------------|
Gb|-------4b--------4b-----|---4~~~4~~~4~~~4~~~4~~~4|
Db|------------------------|------------------------|
Ab|-2---2-----0---0--------|------------------------|
Eb|---------------------3--|-3----------------------|

eb|------------------------|
Bb|------------------------|
Gb|-------4b--4------------|
Db|-----------2------------|
Ab|-2---2-----0------------|
Eb|------------------------|

0:42-1:03
eb|------------------------|------------------------|
Bb|------------------------|------------------------|
Gb|------------------------|-4---4------------------|
Db|-5---5------------------|-4---4-4-4-4-2-2-2-2-2-2| x2
Ab|-5---5-5-5-5-5-5-5-5-5-5|-2---2-2-2-2-0-0-0-0-0-0|
Eb|-3---3-3-3-3-3-3-3-3-3-3|------------------------|
          . . . . . . . . .        . . . . . . . . .
eb|------------------------|------------------------|
Bb|------------------------|------------------------|
Gb|-------0----------------|-------0-----------0----|
Db|-----0------------------|-----0-----------0------|
Ab|------------------------|-2-----------0----------|
Eb|-3----------------------|------------------------|

eb|------------------------|-------------------------|
Bb|------------------------|-------------------------|
Gb|-------0----------------|-------0-----4b----0--16b|
Db|-----0-------

Cigarettes Coffee Booze chords – Minus 5

 Artist: The Minus 5
Song:  Cigarettes, Coffee & Booze
 The Minus 5 (aka; The Gun Album)

Chords:  A ,  Bm ,  G#m ,  D ,  G ,  E ,  F#m 

Intro [ A ]

[ Bm ] Your mama knew it  [ A ] Now I know it too
[ Bm ] Across a kitchen table  [ A ] She barely looked at you
[ Bm ] The paperbacks were piled up  [ A ] She read them [ G#m ] all right [ F#m ] through
[ D ] Saying all you really need  [ A ] is cigarettes coffee and booze, cigarettes coffee and booze

[ E ] Your mama knew it  [ F#m ] Now I know it too [ Bm ] All you really need
[ A ] Cigarettes [ G ] coffee and [ D ] booze
[ A ] Cigarettes [ G ] coffee and [ D ] booze
[ A ] ooh-ooh-ooh

[ Bm ] And if I go to Houston  [ A ] I'll find your daddy's grave
[ Bm ] I'll thank him for the sunshine  [ A ] that dragged me from a cave
[ Bm ] I'll ask him to forgive me  [ A ] for being [ G#m ] such a [ F#m ] screw
[ D ] And I'll tell that I always  [ A ] be in love with you, be in love with you

[ E ] Your mama knew it  [ F#m ] Now I know it too [ Bm ] All you really need
[ A ] Cigarettes [ G ] coffee and [ D ] booze
[ A ] Cigarettes [ G ] coffee and [ D ] booze
[ A ] ooh-ooh-ooh

[ Bm ] I'm not frozen back in time  [ A ] Time falls forward in a line
[ Bm ] The spread of ashes, the sting of lime
[ A ] Floating mold, the stain of wine
[ Bm ] Next thing you know  [ A ] situation is [ G#m ] lose [ F#m ] lose
[ D ] When all you really need  [ A ] is cigarettes coffee and booze, cigarettes coffee and booze

[ E ] Your mama knew it  [ F#m ] Now I know it too [ Bm ] All you really need
[ A ] Cigarettes [ G ] coffee and [ D ] booze
[ A ] Cigarettes [ G ] coffee and [ D ] booze
[ A ] ooh-ooh-ooh

[ Bm ] You barely had a family  [ A ] It's lucky when you can
[ Bm ] Believe in something different
[ A ] and hold it in your hand
[ Bm ] It's smaller than a breadbox  [ A ] more fragile [ G#m ] than a [ F#m ] plan
[ D ] No different than a seabird  [ A ] rotting in the sand, rotting into the sand

[ E ] Your mama knew it  [ F#m ] Now I know it too [ Bm ] All you really need
[ A ] Cigarettes [ G ] coffee and [ D ] booze
[ A ] Cigarettes [ G ] coffee and [ D ] booze
[ A ] Cigarettes [ G ] coffee and [ D ] booze
[ A ] Cigarettes [ G ] coffee and [ D ] booze
[ A ] ooh-ooh-ooh

Yang Penting Happy chords – Abdul And The Coffee Theory

 [intro]  E F#m G#m F#m  2x

      E F#m   
tiga hari tlah berlalu 
      G#m F#m E F#m G#m F#m 
ku masih di tempat tidur ini
        E F#m 
setiap menit ku lalui 
    G#m F#m E F#m G#m F#m 
ditemani remote control TV

 A F#m 
ku hanya ingin ceriakan hati
 A B 
setelah kamu tinggalkan ku pergi

[chorus]
        A G#m 
semua ku lakukan dengan caraku
      F#m E 
nikmati hari-hari tanpa bayang dirimu
       A G#m 
semua ku lakukan dengan caraku
       F#m B 
tak peduli bila aku sendiri 
              E F#m G#m F#m 
yang penting happy
              E F#m G#m F#m 
yang penting happy

      E F#m 
mencoba habiskan waktu 
      G#m F#m E F#m G#m F#m 
nikmati koleksi DVD
      E F#m 
mencoba menertawakan 
        G#m F#m E F#m G#m 
ending di romantic comedy

 A F#m 
ku hanya ingin ceriakan hati
 A B 
setelah kamu tinggalkan ku pergi

[chorus]
        A G#m 
semua ku lakukan dengan caraku
      F#m E 
nikmati hari-hari tanpa bayang dirimu
       A G#m 
semua ku lakukan dengan caraku
       F#m B 
tak peduli bila aku sendiri 
              E F#m G#m F#m 
yang penting happy
              E F#m G#m F#m 
yang penting happy

 F#m G#m 
di suatu hari nanti 
 F#m C#m 
kan ada penggantimu
 F#m G#m 
tapi tuk saat ini 
       A B 
ku hanya ingin nikmati hidup

[chorus]
        A G#m 
semua ku lakukan dengan caraku
      F#m E 
nikmati hari-hari tanpa bayang dirimu
       A G#m 
semua ku lakukan dengan caraku
       F#m B 
tak peduli bila aku sendiri
       F#m B 
tak peduli bila aku sendiri
              E F#m G#m F#m 
yang penting happy
              E F#m G#m F#m 
yang penting happy
              E     
yang penting happy

Amazing You chords – Abdul And The Coffee Theory

 [into]  C F C G C F 
amazing you, kau membuat
 C F 
ku percaya akan cinta
 Em Dm G C F 
yang telah lama hilang di hatiku

 C F 
amazing you, kau membuat
 C F 
ku terpana saat kamu
 Em Dm G C 
menerima diriku apa adanya

[chorus]
 F Em 
kau buat aku jatuh cinta
 F Em 
kau buat diriku bahagia
 F Em 
kau buat diriku sempurna
 Dm G 
hanya kamu amazing you

[int]  C F C G C F 
amazing you, kau membuat
 C F 
ku terpana saat kamu
 Em Dm G C 
menerima diriku apa adanya

[chorus]
 F Em 
kau buat aku jatuh cinta
 F Em 
kau buat diriku bahagia
 F Em 
kau buat diriku sempurna
 Dm G C 
hanya kamu amazing you

 F 
tak ada lagi yang bisa
 Am 
pisahkan kita saat bersama
 F 
semua karena dirimu
 Am Gm C 
yang mampu begitu oh yeah

[chorus]
 F Em 
kau buat aku jatuh cinta
 F C 
kau buat diriku bahagia
 F Em 
kau buat diriku sempurna
 Dm G 
hanya kamu

 F Em 
kau buat aku jatuh cinta
 F C 
kau buat diriku bahagia
 F Em 
kau buat diriku sempurna
 Dm G 
hanya kamu... sempurna
 Dm G C F 
hanya kamu amazing you
 C F 
amazing you
 C 
amazing you

Another Cup Of Coffee chords – Mike And The Mechanics V3

 Kapo 2

Another cup of coffee   /       Mike and the mechanics 1995

Intro:  //:      Em D D C        ://     


         Em D C Em 
And she pours herself another cup of coffee 
         Em D C Em 
As she contemplates the stain across the wall 
     Em D C Em 
And it's in between the cleaning and the washing 
              Am G D Em 
That's when looking back's, the hardest part of all 


         Em D C Em 
And she always did her best to try and please him 
           Em D C Em 
While he always did his best to make her cry 
         Em D C Em 
And she got down on her knees to stop him leaving 
           Am G D Em 
But he always knew one day he'd say goodbye 


 C G D 
  Where are your friends, where are your children 
 C G D 
  Is this your house is this your home 
 C G D 
  Does nothing ever last forever,
 C G D              
  Does everybody sleep alone?

Intro:

        Em D C Em 
And he tear´s the business tags from his old suitcase 
        Em D C Em 
As he packs away the pieces of his life 
           Em D C Em 
They all love him but they always try to change him 
              Am G D Em 
That's what happens when a girl becomes a wife 


         Em D C Em 
And she pours herself another cup of coffee 
         Em D C Em 
As she contemplates the stain across the wall 
     Em D C Em 
And it's in between the cleaning and the washing 
              Am G D Em 
That's when looking back's, the hardest part of all


 C G D 
  Where are your friends, where are your children 
 C G D 
  Is this your house is this your home 
 C G D 
  Does nothing ever last forever,
 C G D              
  Does everybody sleep alone?

Intro:

4x
 Em D D Am C 
Don't look back, don't give up, pour yourself another cup

Coffee And Tv Tabs by Blur V5

 Blur - Coffee and Tv

Theres some other alright tabs for this but I think folk are complicating are a pretty 
simple song

The Rhythm part is just the ver 3 chords that are already on this site

Solos - I've included the first solo in this but the 2nd is better to just improvise

Lead Guitar

Verse/Backing for Solo

---------------------------------------------------------|
---------------------------------------------------------|
--8-8--8b9-8--8b9-8--8b9-8-8--5-5--5-5-5--11-11--9--9-9--|
--x-x--x-x-x--x-x-x--x-x-x-x--x-x--x-x-x--x--x---x--x-x--|
--6-6--6-6-6--6-6-6--6-6-6-6--3-3--3-3-3--9--9---7--7-7--|
---------------------------------------------------------|

--------------0-0-0--0-0-0-------------------------------|
--------------1-1-1--1-1-1-------------------------------|
--4-4--4-4-4--2-2-2--2-2-2---101010-101010-101010-101010-|
--x-x--x-x-x--3-3-3--3-3-3---x-x-x--x-x-x--x-x-x--x-x-x--|
--2-2--2-2-2--3-3-3--3-3-3---8-8-8--8-8-8--8-8-8--8-8-8--|
--------------1-1-1--1-1-1-------------------------------|

---------------------------------------------------------|
---------------------------------------------------------|
--8-8--8b9-8--8-9-8--8b9-8-8--5-5--5-5-5--11-11--9--9-9--|
--x-x--x-x-x--x-x-x--x-x-x-x--x-x--x-x-x--x--x---x--x-x--|
--6-6--6-6-6--6-6-6--6-6-6-6--3-3--3-3-3--9--9---7--7-7--|
---------------------------------------------------------|

--------------0-0-0--0-0-0------------------------------------------|
--------------1-1-1--1-1-1------------------------------------------|
--4-4--4-4-4--2-2-2--2-2-2---101010-101010-6-6-6--6-6-6--11-13-11-9-|
--x-x--x-x-x--3-3-3--3-3-3---x-x-x--x-x-x--x-x-x--x-x-x--9--11-9--7-|
--2-2--2-2-2--3-3-3--3-3-3---8-8-8--8-8-8--4-4-4--4-4-4-------------|
--------------1-1-1--1-1-1------------------------------------------|

Chorus

-------------------------------------------------------|
------------------------------------------12-10-9--5---|
--9-9--9-9-9--9-9-9--9-9-9--8-8-8--8-8-8--x--x--x--x---|
--x-x--x-x-x--x-x-x--x-x-x--x-x-x--x-x-x--9--7--6--2---|
--7-7--7-7-7--7-7-7--7-7-7--6-6-6--6-6-6---------------|
-------------------------------------------------------|

-------------------------------------------------------|
--------------------------12-12--8-8-------------------|
--1111-111111-13-13--1111-------------8-8-8--8-8-8-----|
--x-x--x-x-x--x--x---x-x--------------x-x-x--x-x-x-----|
--9-9--9-9-9--11-11--9-9--------------6-6-6--6-6-6-----|
-------------------------------------------------------|

-------------------------------------------------------|
------------------------------------------12-10-9--5---|
--1111-111111-111111-111111-8-8-8--8-8-8--x--x--x--x---|
--x-x--x-x-x--x-x-x--x-x-x--x-x-x--x-x-x--9--7--6--2---|
--9-9--9-9-9--9-9-9--9-9-9--6-6-6--6-6-6---------------|
-------------------------------------------------------|

--------------------------------------|
--------------------------12-12--8-8--|
--1111-111111-13-13--1111-------------|
--x-x--x-x-x--x--x---x-x--------------|
--9-9--9-9-9--11-11--9-9--------------|
--------------------------------------|

After Chorus

Play Offbeat

--10--10--10--10--9---9---9---9---------|
--10--10--10--10--10--10--10--10--------|
--11--11--11--11--9---9---9---9---------|
----------------------------------------|
----------------------------------------|
----------------------------------------|

Solo 1

---------------12b-10b^-----------------------------------------------12b-|
--12-7h9h10b-----------10b^-----------------------------------------------|
-------------9b^-----------10b^---------12b1312-9-------------------9b----|
------------------------------7b8b^9--/\/----------9b--9b--12b--9-11------|
--------------------------------------------------------------------------|
--------------------------------------------------------------------------|

End

---------------------------------------------------------|
------

Burnt Toast And Black Coffee chords – Shorty Long

 http://www.hillbilly-music.com/artists/story/index.php?id=12023

This is just the way i prefer to play it :) With power chords...Listen to the song 
for the rhythm, it's on YouTube. 

It's also been played by Mike Pedicin. I'm not sure who wrote it though. 

Intro: just mess around with the verse chords


Now let me tell you that
 Bb Db Eb F# 
I came home so late last night
 Bb Ab Eb F  
Looked but found no one in sight
 Bb Db Eb F# 
Guess that I'll investigate
 Bb 
Who's been keeping my baby out late

            Bb Db 
I'm eating burnt toast
               Eb Db 
and drinking black black coffee
          Bb     Dd
eating burnt toast 
               Eb Db 
and drinking black black coffee
          Bb Db 
eating burnt toast 
               Eb Db 
and drinking black black coffee
 Bb       (n/c)             Db 
that's all she left for me


 Bb Db Ebm F# 
breakfast lunch and dinner too
 Bb Ab Ebm F  
I used to sit across from you
 Bb Db Ebm F# 
but now I face an empty chair
 Bb 
you are gone and I wonder where


 Bb Db 
I'm eating burnt toast
               Eb Db 
and drinking black black coffee
          Bb     Dd
eating burnt toast 
               Eb Db 
and drinking black black coffee
          Bb Db 
eating burnt toast 
               Eb Db 
and drinking black black coffee
 Bb       (n/c)             Db 
that's all she left for me