Tag: cold

Warm On A Cold Night chords – HONNE

 I'm going to use - to help with the timing imagine each - is a 1/4 time note 

H O N N E - WARM ON A COLD NIGHT

                  A#m7  - - -  C  - - - 
Like a rabbit in headlights
                             G#7  -  F7  -  C7  -  F7 C7  
They’re stunned by all your charm
                A#m7  - - -  C  - - -  
And I feel so damn lucky
                   G#7  -  F7  -  C7  -  F7  - 
To have you on my arm

                      A#m7  - -  C7 C  - - - 
And I can’t help but wonder
                 G#7  - - -  F7  - - - 
How we ended up alright
                        A#m7  - -  C7 C  - - - 
And I love you like no other
                              G#7  - - -  C7  - - -
Cause this has never felt so right

CHORUS:
                 A#m7  - - -  C  - - - 
You can keep me warm on a cold night
                          G#7  -  F7  -  C7  -  F7 C7  
Warm on a cold cold night
                 A#m7  - - -  C  - - - 
You can keep me warm on a cold night
                          G#7  -  F7  -  C7  -  F7 C7  
Warm on a cold cold night 

                         A#m7  - - -  C  - - -    
I want to treat you something special
                      G#7  -  F7  -  C7  -  F7 C7 
Give you what you deserve
                       A#m7  - - -  C  - - -         
I want to take you to paradise
               G#7  -  F7  -  C7  -  F7  -
In a 1950’s Merc
                     
                      A#m7  - -  C7 C  - - - 
And I can’t help but wonder
                 G#7  - - -  F7  - - - 
How we ended up alright
                        A#m7  - -  C7 C  - - - 
And I love you like no other
                              G#7  - - -  C7  - - -
Cause this has never felt so right

CHORUS:
                 A#m7  - - -  C  - - -
You can keep me warm on a cold night
                          G#7  -  F7  -  C7  -  F7 C7 
Warm on a cold cold night
                 A#m7  - - -  C  - - -
You can keep me warm on a cold night
                         G#7  -  F7  -  C7  -  F7 C7 
Warm on a cold cold night

                          A#m7  - - -  C  - - -  G#7  -  F7  -  C7  -  F7 C7  
Girl you can keep me warm
                          A#m7  - - -  C  - - -  G#7  -  F7  -  C7  -  F7  -
You can keep me real warm                              There’s just one thing...

 A#m7  - - -  C  - - -
Girl you could have anyone
    G#7  -  F7  -  C7  -  F7 C7  
So why you choosing me and not leaving me on my own
 A#m7  - - -  C  - - -
Girl you could be with anyone
    G#7  -  F7  -  C7  -  F7 C7  
So thanks for making me your number one

CHORUS:

                 A#m7  - - -  C  - - -
You can keep me warm on a cold night
                          G#7</spa

Funky Cold Medina Tabs – Tone-Lōc Vsion 2

 Tab at top to middle of page, lyrics at middle to bottom of page. Too many lyrics to fit with the tab, as
simple as it is.

Intro: e|---------------------------------------------------------------|
       B|-------------------xx66~---------------------------------------|
       G|-------------------xx55~-xx55~-------------------------5-5-----|
       D|-xx55~-xx55~-xx55~-xx33~-xx55~-xx55~-xx55~-xx55~-xx55~-5-5-45~-|
       A|-xx55~-xx55~-xx55~-------xx33~-xx55~-xx55~-xx55~-xx55~-3-3-45~-|
       E|-xx33~-xx33~-xx33~-------------xx33~-xx33~-xx33~-xx33~-----23~-|

First Verse: e|-----|  e|-------------|  e|-----|  e|-----|
             B|-----|  B|-------------|  B|-----|  B|-----|
             G|-----|  G|-----5-5-----|  G|-----|  G|-----|
             D|-55~-|  D|-55~-5-5-45~-|  D|-55~-|  D|-55~-|
             A|-55~-|  A|-55~-3-3-45~-|  A|-55~-|  A|-55~-|
             E|-33~-|  E|-33~-----23~-|  E|-33~-|  E|-33~-|

Chorus: e|---------------------------------------------------------------|
        B|-------------------xx66~---------------------------------------|
        G|-------------------xx55~-xx55~-------------------------5-5-----|
        D|-xx55~-xx55~-xx55~-xx33~-xx55~-xx55~-xx55~-xx55~-xx55~-5-5-45~-|
        A|-xx55~-xx55~-xx55~-------xx33~-xx55~-xx55~-xx55~-xx55~-3-3-45~-|
        E|-xx33~-xx33~-xx33~-------------xx33~-xx33~-xx33~-xx33~-----23~-|

Second Verse: e|-----|  e|-------------|  e|-----|  e|-----|
              B|-----|  B|-------------|  B|-----|  B|-----|
              G|-----|  G|-----5-5-----|  G|-----|  G|-----|
              D|-55~-|  D|-55~-5-5-45~-|  D|-55~-|  D|-55~-|
              A|-55~-|  A|-55~-3-3-45~-|  A|-55~-|  A|-55~-|
              E|-33~-|  E|-33~-----23~-|  E|-33~-|  E|-33~-|

Chorus: e|---------------------------------------------------------------|
        B|-------------------xx66~---------------------------------------|
        G|-------------------xx55~-xx55~-------------------------5-5-----|
        D|-xx55~-xx55~-xx55~-xx33~-xx55~-xx55~-xx55~-xx55~-xx55~-5-5-45~-|
        A|-xx55~-xx55~-xx55~-------xx33~-xx55~-xx55~-xx55~-xx55~-3-3-45~-|
        E|-xx33~-xx33~-xx33~-------------xx33~-xx33~-xx33~-xx33~-----23~-|

Third Verse: e|-----|  e|-------------|  e|-----|  e|-----|
             B|-----|  B|-------------|  B|-----|  B|-----|
             G|-----|  G|-----5-5-----|  G|-----|  G|-----|
             D|-55~-|  D|-55~-5-5-45~-|  D|-55~-|  D|-55~-|
             A|-55~-|  A|-55~-3-3-45~-|  A|-55~-|  A|-55~-|
             E|-33~-|  E|-33~-----23~-|  E|-33~-|  E|-33~-|

Chorus: e|---------------------------------------------------------------|
        B|-------------------xx66~---------------------------------------|
        G|-------------------xx55~-xx55~-------------------------5-5-----|
        D|-xx55~-xx55~-xx55~-xx33~-xx55~-xx55~-xx55~-xx55~-xx55~-5-5-45~-|
        A|-xx55~-xx55~-xx55~-------xx33~-xx55~-xx55~-xx55~-xx55~-3-3-45~-|
        E|-xx33~-xx33~-xx33~-------------xx33~-xx33~-xx33~-xx33~-----23~-|

Bridge: e|---------------------------------------------------------------|
        B|-------------------xx66~---------------------------------------|
        G|-------------------xx55~-xx55~-------------------------5-5-----| (P.M. entirely first time)
        D|-xx55~-xx55~-xx55~-xx33~-xx55~-xx55~-xx55~-xx55~-xx55~-5-5-45~-|
        A|-xx55~-xx55~-xx55~-------xx33~-xx55~-xx55~-xx55~-xx55~-3-3-45~-|
        E|-xx33~-xx33~-xx33~-------------xx33~-xx33~-xx33~-xx33~-----23~-|

Fourth Verse: e|-----|  e|-------------|  e|-----|  e|-----|
              B|-----|  B|-------------|  B|-----|  B|-----|
              G|-----|  G|-----5-5-----|  G|-----|  G|-----|
              D|-55~-|  D|-55~-5-5-45~-|  D|-55~-|  D|-55~-|
              A|-55~-|  A|-55~-3-3-45~-|  A|-55~-|  A|-55~-|
              E|-33~-|  E|-33~-----23~-|  E|-33~-|  E|-33~-|

Outro Chorus: e|---------------------------------------------------------------|
              B|-------------------xx66~---------------

My Baby Gone Cold chords – Billy Roberts And The Rough Riders

 Billy Roberts and the Rough Riders
Song - My Baby Gone Cold
Album - The Last of the Originals (2014)
Capo 3
 G 
My Baby Gone Cold

My Baby Gone Cold
 D C G 
She's as cold as ice and she won't burn for me.
 G 
Well once upon a time 

Her little smile would light

The minute she see me walking down the aisle 
 D G 
she coming running to me.
 G 
She get a little nervous

She was a little shy
 D 
The nervous type my baby was
         C G 
My god she had a preety face

 G 
My Baby Gone Cold

My Baby Gone Cold
 D C G 
She's as cold as ice and she won't burn for me.

 D C G 
She's as cold as ice and she won't burn for me.

           EM        
She wont talk to me
               D 
She wont look at me
           EM D 
She's avoiding me like a sunday sinner
          EM D C 
Is there another man or something else


 G 
Well once upon a time 

Her little smile would light

The minute she see me walking down the aisle 

 D G 
she coming running to me.
 G 
She get a little nervous

She was a little shy
 D 
The nervous type my baby was
         C G 
My god she had a preety face

 G 
My Baby Gone Cold

My Baby Gone Cold
 D C G 
She's as cold as ice and she won't burn for me.
 D C G 
She's as cold as ice and she won't burn for me.

 G 
My Baby Gone Cold

My Baby Gone Cold
 D C G 
She's as cold as ice and she won't burn for me.
 D C G 
She's as cold as ice and she won't burn for me.






Cold Companion chords – The Arcs

 Intro
E|--7--8--7------------|
B|--7--------10--8--7--|
G|--7------------------|
D|---------------------|
A|---------------------|
E|---------------------|

Played over Em during verse
E|-----------------------|
B|-----------------------|
G|-----------4-----------|
D|--2--4--5-----5--2--0--|
A|-----------------------|
E|-----------------------|

 Em 
I was born a lover
                 Bm 
Everybody knows
 Em 
Just the way it is
                      Bm 
Just the way it goes
 Em 
She's a cold companion
                   Bm 
Like a desert rose
 Em 
The worst it is
                    Bm 
The more she glows

E|------------------------------------------|
B|------------------------------------------|
G|------------------------------------------|
D|------------------------------------------|
A|--------5-----5-----7--5------------------|
E|--5-7-----7-----7--------7--5--7--0--0----|
   A D Em 
                                           Woman are you under?
E|------------------------------------------|
B|------------------------------------------|
G|------------------------------------------|
D|------------------------------------------|
A|--------5-----5-----7--5------------------|
E|--5-7-----7-----7--------7--5--7--0--0----|
                                            Bm A 
                                           Woman are you under?
 D Em 
Woman are you under?
 Bm Em 
Woman are you under?

 Em 
I saw a light shining
                    Bm 
On the edge of town
 Em 
I packed my things
                     Bm 
And I ran it down
 Em 
Pass me and my hammer
                      Bm 
I hold it in my hand
 Em 
We can never change
                     Bm 
The universe's plan


E|------------------------------------------|
B|------------------------------------------|
G|------------------------------------------|
D|------------------------------------------|
A|--------5-----5-----7--5------------------|
E|--5-7-----7-----7--------7--5--7--0--0----|
   A D Em 
                                           Woman are you under?
E|------------------------------------------|
B|------------------------------------------|
G|------------------------------------------|
D|------------------------------------------|
A|--------5-----5-----7--5------------------|
E|--5-7-----7-----7--------7--5--7--0--0----|
   Em Bm11 A 
                                           Woman are you under?
 D Em 
Woman are you under?
 D/E A 
Woman are you under?
 D Em 
Woman are you under?
 Bm11 A 
Woman are you under?
 D Em 
Woman are you under?
 D/E A 
Woman are you under?
 D Em 
Woman are you under?
 D/E Em 
Woman are you under?

Youve Got A Cold chords – 10cc

 
Intro E riff

  E 
You're nose is runnin', and your eyes are red.

You're head is achin', you'll be better in bed.
             A G F#m F 
From the bottom of your fever to the throbbin' in your tongue.
                G 
You've got a cold, you've got a cold.
 
  E 
You're searchin' madly, to find a cure.
 E 
But the mercury's risin', to a hundred and four.
                A G F#m F 
You've got a beauty, a badass, the mother of them all....
                G 
You've got a cold, you've got a cold.

   Em Bm A G D Am 
Ain't no use in fightin' it, better to bed and try to sweat it out.
  Am                               
Hot toddies (won't help you).  Warm blankets, (won't sweat it out)
  Am 
Inhalants, (just choke you).  Hot flushes, will tell you.
   G 
Anyway you've got it, ain't no doubt about it.

Nothin' new about it, you can't scream and shout it.  

   Em Bm A G D Am 
Ain't no use in fightin' it, better to bed and try to sweat it out.
   Am 
Hot toddies (won't help you).  Warm blankets, (won't sweat it out)

Inhalants, (just choke you).  Hot flushes, will tell you.
   G 
Anyway you've got it, ain't no doubt about it.
                        G F#m Eb Em 
Nothin' new about it, you can't fight it.

Instrumental  Verse chords

   E    
Foreign bodies in your Kleenex, you've got no taste at all.

While your system is dyin, the bugs are havin' a ball.
                A G F#m F 
You've got a beauty, a badass the mother of them all.
                G                                     
You've got a cold, you've got a cold, you've got a cold repeat and fade....

World So Cold Tabs – Ill Nino

 Intro

-------------------------------------------------------------|
-------------------------------------------------------------|
----------------7-----------------------------8-----8/5------|
-0-----------------------------0-----------------------------|
-0---0--0-0--0--5---0--0-0--0--0---0--0-0--0--6--0--6/3------|
-0---0--0-0--0------0--0-0--0--0---0--0-0--0-----0-----------|    X4


-------------------------------------------------------------|
-------------------------------------------------------------|
-------------------------------------------------------------|
-0-0----x-0-0-----x-0-0-----x-0-0-0--------------------------|
-0-0----x-0-0-----x-0-0-----x-0-0-0--------------------------|
-0-0----x-0-0-----x-0-0-----x-0-0-0--------------------------|    X4

Verse

-------------------------------------------------------------|
-------------------------------------------------------------|
-------------------------------------------------------------|
-------------------------------------------------------------|
-0-0-0-0-0---0-0-0-0-0--------1-1--1-1-----------------------|
-0-0-0-0-0---0-0-0-0-0--------1-1--1-1-----------------------|    X3

-------------------------------------------------------------|
-------------------------------------------------------------|
-15-15-15-15-15-15-15-15-14-14-14-14-14-14-14-14-------------|
-12-12-12-12-12-12-12-12-11-11-11-11-11-11-11-11-------------|
-------------------------------------------------------------|
-------------------------------------------------------------|


Chorus

-------------------------------------------------------------|
-3-----------------------------------------------------------|
-2-----------------------------------------------------------|
-0----3----7----8-8-8-8-7-7-7--------------------------------|
-0----3----7----8-8-8-8-7-7-7--------------------------------|
-0----3----7----8-8-8-8-7-7-7--------------------------------|    X2

Cold Wind Blowing chords – Clifford T Ward

 Intro =  C Dm Em Dm  x 2   F C Dm C F C Dm G 

Verse 1
           F C F C 
There's a cold wind blowing but it's missing me
      F C F G 
'Cos I'm so warm in your company
    F C F C 
So don't you worry girl don't you cry
     F C F G C F G F 
You really can smile so let me help you try

Guitar solo over  C F G F  x 3

Bridge
 G F 
You say there's nothing left
             G C 
But I would disagree
 G F 
Your life has come adrift
            G C 
Anchor yourself to me

Repeat verse 1
           F C F C 
There's a cold wind blowing but it's missing me
      F C F G 
'Cos I'm so warm in your company
    F C F C 
So don't you worry girl don't you cry
     F C F G C F G F 
You really can smile so let me help you try

Outro

Guitar solo over  C F G F  to fade

Cold chords – Alex G

 D A F#m D 
He's not evil, just a useless son of the devil
               A D 
Let's put the prozac in his mouth
 A D 
Watch him choke and spit it out
 A E F#m F 
He deserves what he receives, baby, don't you
 D A F#m D 
She's a creature, a lover and a teacher
            A D 
And like a baby on the beach, 
 A D 
she lets the water touch her feet
 A E F#m F 
But she will fall back from the tide, baby, don't you
 A F#m F 
so cold
      A F#m F 
it's so cold
 A F#m F 
so cold
      A F#m F 
it's so cold
 D A F#m D 
Let's pretend that we don't know what happens 
            A D 
and in the end we'll close the door,
        A D 
like a nonsense metaphor
         A E F#m F 
we will disguise what we ignore and I'll love you
 A F#m F 
so cold
      A F#m F 
it's so cold
 A F#m F 
so cold
      A F#m F 
it's so cold

~solo~
 D A F#m D A  till end

Cold October chords – Escondido

 Intro 


 Am F C G 
           OOOOoooooooooohhh

VERSE 1

 C Am          
miles down the highway i called you on the phone
 F C G 
couldn't bring myself to tell you when i had you all alone
 C Am          
'cause I loved you like a summer's day those nights spent in your arms
 F C G 
I said i'd never leave you, guess i'd be doing you some harm


CHORUS

 C G 
'cause that's the old me talking, the new me's walking
 Am F                   
loved you until the truth came knocking 
 C G Am F 
darlin', it's a cold october

 C G 
that's the old me talking, the new me's walking
 Am F               
some hearts were just made for locking 
 C G Am F 
darlin', its a cold october

VERSE 2

 C Am        
now leaving you ain't easy, they say some love never dies
 F C G 
but ours got lost in silence, no longer recognized
 C Am        
so i left you in the rear view, saw you standing by the door
 F C G 
that one last kiss was for all things that i don't feel no more


BRIDGE
 Am 
it's gonna be a cold october
 G 
it's gonna be a cold october
 Am 
it's gonna be a cold october
 G F Am G 
it's gonna be a cold octoberrrrrrrrrrrrrrrrrrrrrrrrr


CHORUS (except modify as follows)

 G Am 
its a cold october
 G F 
its a cold october
 G C 
its a coooooooooooooooold october

Audience Tabs – Cold War Kids

 -------------------------------------------------------------------------------
                             AUDIENCE - Cold War Kids
-------------------------------------------------------------------------------
: sgisthewaytobe
Tuning: Standard

For some inconceivable reason nobody has tabbed this song yet so I felt
obligated to do so. I got all of this from watching live performances and I
believe it's pretty accurate if not perfect. Enjoy.

There's not really any guitar until after he says the first "audience of one"
It's kind of a funky sounding song so he mostly plays the high e,B,G strings
with up-strums. Listen to the song and you'll figure my tab out pretty easy.

Verse 1: No guitar.
Chorus 1: No guitar.

Post-Chorus 1: (oooh part) This is where guitar starts.

               "ooooooooh,        "ooooh, ooooooooohhh"
e|--4--4--4----4--2--7--------7--2--4------4--2--7--7------------------------|
B|--4--4--4----4--2--7--------7--2--4------4--2--7--7------------------------|
G|--4--4--4----4--3--8--------8--3--4------4--3--8--8------------------------|
D|--6--6--6----6--4--9--------9--4--6------6--4--9--9------------------------|
A|--6--6--6----6--4--9--------9--4--6------6--4--9--9------------------------|
E|--4--4--4----4--2--7--------7--2--4------4--5--7--7------------------------|


Verse 2: The stuff in parentheses sounds good with the song but you can't really hear it in the album version.
         He plays the parentheses notes live most of the time though.
   
   "Pacin' your apartment,  linoleum floors" (Repeat this sequence for rest of the verse)
e|---------------(4)-(4)----4--4-4--(7)-(7)----------------------------------|
B|---------------(4)-(4)----4--4-4--(7)-(7)----------------------------------|
G|---------------(4)-(4)----4--4-4--(8)-(8)----------------------------------|  x3
D|---------------(6)-(6)----6--6-6--(9)-(9)----------------------------------|
A|---------------(6)-(6)----6--6-6--(9)-(9)----------------------------------|
E|---------------(4)-(4)----4--4-4--(7)-(7)----------------------------------|


Chorus 2: Listen to the song and this should make sense, this is the best I can show the rhythm.

"Windshield wipers wavin' for an audience of one"
e|-------------------9--99---999---999----7--7-------------------------------|
B|-------------------9--99---999---999----7--7-------------------------------|
G|-------------------9--99---999---999----8--8-------------------------------|
D|-------------------x--xx---xxx---xxx----9--9-------------------------------|
A|-------------------7--77---777---777----9--9-------------------------------|
E|-------------------x--xx---xxx---xxx----7--7-------------------------------|

Verse 3: No guitar.

Chorus 3, Pt 1: No guitar after 1st "Drop the needle"

Chorus 3, Pt 2:
"Drop the needle we're playin for an audience of one.
e|----------------------9--99---999---99/1111---7--7-------------------------|
B|----------------------9--99---999---99/1111---7--7-------------------------|
G|----------------------9--99---999---99/1111---8--8-------------------------|
D|----------------------x--xx---xxx---xx/x-x----9--9-------------------------|
A|----------------------7--77---777---77/9-9----9--9-------------------------|
E|----------------------x--xx---xxx---xx/x-x----7--7-------------------------|

Solo: It's pretty easy to get down.

e|-------------------------------------------------------------0-------------|
B|-------5---5-4---4-----4-------2---------5---5-4---4-----4---2-------------|
G|---------6-----6-----4---4---3---3-----6---6-----6-----4---4-3-------------|
D|---4/6-------------4-------4-------4/6---------------4-------4-------------|
A|---------------------------------------------------------------------------|
E|---------------------------------------------------------------------------|

e|---------------------------------------------------------------------------|
B|---------5---5-4---4-----4-------2---------5---5-4---4-----4-------2-------|

Prairie Home Companion – Its So Cold chords

 IT’S SO COLD! (to the tune of Down to the River to Pray)
Adaptation by: Garrison Keillor, Joe Newberry and The Guy's All-Star Shoe Band for 
Prairie Home Companion 
(“Traditional” Minnesota hymn)

             D D  
When I went out to start my car 
           A7 D              
It was so cold that it hurt my face 
                  D D 
My car wouldn’t start when I turned the key 
      G D 
Good Lord it is so cold 

 A7 D          
O mother it’s so cold,
 G D 
it’s so cold, it’s so cold 
 A7 D          
O mother it’s so cold, 
 G D 
trying to start my car 
  
             D D  
I asked my neighbor to jump my car 
                 A7 D        
We got out the cables, hooked them to the posts 
               D D  
I turned the key and it made no sound 
       G D 
Good Lord it is so cold 

 A7 D          
O father it’s so cold, 
 G D 
it’s so cold, it’s so cold 
 A7 D          
O father it’s so cold, 
 G D 
trying to jump my car 
 
             D D  
When I went down to the corner bus stop 
               A7 D        
To wait for the bus to go downtown 
             D D  
I wish I’d worn a hat and scarf 
      G D 
Good Lord it is so cold 

 A7 D          
O brother it’s so cold, 
 G D 
it’s so cold, it’s so cold 
 A7 D          
O brother it’s so cold, 
 G D 
down at the corner bus stop 
 
               D D  
 I waited and waited for the bus to come 
            A7 D        
Along with six other refugees 
             D D  
We looked down the street, the empty street 
      G D 
Good Lord it is so cold 

 A7 D          
O sister, it’s so cold, 
 G D 
it’s so cold, it’s so cold 
 A7 D          
O sister it’s so cold, 
 G D 
waiting for the bus to come 
 
             D D  
I sometimes think of Santa Fe, 
      A7 D        
Santa Fe and a beautiful day 
         D D  
Sitting in an outdoor café 
    G D 
In my gold lame’ 

 A7 D          
O mother let’s go down, 
 G D 
Let’s go down, come on down 
 A7 D          
O mother let’s go down 
 G D 
Down to Santa Fe. 

The Agony Of Regret Cold Tabs by Five Finger Death Punch

 The Agony of Regret
Five Finger Death Punch

Tuning: Standard B

This a beautiful and strong piece of guitar. So make sure your guitar is tuned in 
standerd B (B E A D F# B). Listen to the song for the rythm.

For the most beautiful sound I suggest to pick everything but the hammer-on part. You 
can play that part like bass players.

NOTE: When tuning your guitar this low it will easily get out of tune. If you play for a 
long time it will stay in tune. So the first 10 minutes you'll need to re-tune pretty much.


B|-----------------------------------|-----------------------------------|
F#---------------0-------------------|---------------0-------------------|
D|-----------2----------2-------2----|-----------2----------2------2-----|
A|-------5------------------3--------|-------5------------------3--------|
E|-----------------------------------|-----------------------------------|
B|---0-------------------------------|---0-------------------------------|

B|---------------------------------|----------------0--------------------------------------|
F#---------------0-----------------|------------1-------1----1-----------------------------|
D|-----------2----------2----------|--------4--------------4-------------------------------|
A|-------5------------------3------|-------------------------------------------------------|
E|---------------------------------|---0------------------------------------5--------------|
B|---3-----------------------------|---------------------------------0h3h5-----5--3--------|

Play twice

B|-------------------------------------|----------------------------------|
F#-----------0----------------0--------|----------0-------------0---------|
D|-------------------------------------|----------------------------------|
A|-------5------5---------5-------5----|------7-------7------7------7-----|
E|----3--------------3-----------------|---5-------------5-------------5--|
B|-------------------------------------|----------------------------------|

B|-------------------------------------|----------------------------------|
F#-----------0----------------0--------|----------0-----------------------|
D|-------------------------------------|----------------------------------|
A|-------5------5---------5-------5----|------7-------7------9------9-----|
E|----3--------------3-----------------|---5-------------/7------7--------|
B|-------------------------------------|----------------------------------|

B|-------------------------------------|----------------------------------|
F#-----------0----------------0--------|----------0-------------0---------|
D|-------------------------------------|----------------------------------|
A|-------5------5---------5-------5----|------7-------7------7------7-----|
E|----3--------------3-----------------|---5-------------5-------------5--|
B|-------------------------------------|----------------------------------|

B|------------------------------------------|
F#------------------------------------------|
D|------------------------------------------|
A|------------------------------------------|
E|-----7--7-----7--7------7-7------7--7-----|
B|--5--------5---------5--------5-----------|

Enjoy!

Im Cold chords – Guided By Voices

 Gudided By Voices - I'm Cold.

songsforwalter@hotmail.co.uk

One of the best songs ever!


There's 2 guitar tracks playing slightly different inversions so this is an approximation of both.

The guitars are tuned slightly sharp of concert pitch.

Unusual chords - 

Aadd6add9 - x44200
 EM7  -       x66400
 A/C# -   x476x0
 Asus2  -x02200

Intro:  E  /  Em7  / Aadd6add9 /  Asus2  /   E   /   A/C# Asus2 E 
I go outside and it's cold
 E 
I walk downtown and it's cold
   Asus2 
I do everything that I'm told
     EM7 
The people I meet, so hooked on defeat
             Asus2 
And if it's not one thing then it's ten
                       Aadd6add9
I shouldn't have to be told
        Asus2 
So I just keep moving around
               E A/C# Asus2 
'Cause I'm cold

Repeat Verse Chords

 E 
I picked up the pieces that break
 E 
And try not to make a mistake
     Asus2 
and sometimes I'm sick when I wake
   EM7 
I jump in my car and go to a bar
              Asus2 
Because it's so much warmer in there
                Aadd6add9
For my decrepit soul
            Asus2 
Then I get back to moving around
             E A/C# Asus2 
'Cause I'm cold

 C#m G#m 
All wound up
 Asus2 E 
All broken down
 C F# 
Animal person
           E 
Carnival clown
     C                                    
The only thing that hurts
    FM7 
Is knowing it gets worse
        E A/C# Asus2 
As it goes


 E 
I work every day 'til I'm tired
 E 
Emotionally uninspired
     Asus2 
And some think I'll maybe get fired
     EM7 
But what else is new, You do what you do
         Asus2 
Because you're told to
                                                 Ass6add9
It's something of which I'm really not yet quite sold
        Asus2    
But it must just be a problem with me
            E A/C# Asus2 E 
'Cause I'm cold 

Cold Art Of War album Tabs by Washya

 -----------------------------------------------------------------------------
                           Cold Art Of War (Album) - Washya
-----------------------------------------------------------------------------
Tuning: Drop C (Whole Album)
1. Cold Art Of War 
Tuning: Drop C (DAFCGC)
Intro
D|-----------------------------------------------------|
A|-----------------------------------------------------|
F|-----------------------------------------------------|
C|-----------------------------------------------------|
G|-----------------------------------------------------|
C|-0000006666665555511111111-0000006666665555551111111-|x4
PM ************************* ************************* 

Part 2 (Chorus)
D|-----------------------------------------------|
A|-----------------------------------------------|
F|-----------------------------------------------|
C|-----------------------------------------------|
G|-000000066666555551111110000006666655555511111-|
C|-000000066666555551111110000006666655555511111-|x2

Verses
D|-------------------------------------------------------|
A|-------------------------------------------------------|
F|-------------------------------------------------------|
C|-------------------------------------------------------|
G|-1-0-1-0-1-0-1-0-0000-11-0-1-0-2\1-0-1-2\1-0-1-1-0-1-0-|
C|-1-0-1-0-1-0-1-0-0000-11-0-1-0-2\1-0-1-2\1-0-1-1-0-1-0-|

Interlude
D|----------------------------------|
A|----------------------------------|
F|----------------------------------|
C|----------------------------------|
G|-1143-143-143-143-143-1143-0-1-3~-|
C|-1143-143-143-143-143-1143-0-1-3~-|


2. Cold Shadows 
Tuning: Drop C (DAFCGC)
Intro
D|-------------------------------------------------------------|
A|-------------------------------------------------------------|
F|-------------------------------------------------------------|
C|-------------------------------------------------------------|
G|-00-00-0000-00-00-00-0000-00-00-00-0000-00-00-00-0000-00-1-0-|
C|-00-00-0000-00-00-00-0000-00-00-00-0000-00-00-00-0000-00-1-0-|x2
PM ** ** **** ** ** ** **** ** ** ** **** ** ** ** **** **   

Verses
D|--------------------------------------|
A|--------13b--------15b--------13b-----|
F|--------------------------------------|
C|--------15b--------13b--------11b-----|
G|-1-0-xx-----1-0-xx-----1-0-xx-----2\1-|
C|-1-0-xx-----1-0-xx-----1-0-xx-----2\1-|

Chorus
D|--------------------------------------|
A|--------------------------------------|
F|-------5\4-------------5*-------10\7b-|
C|-1-3-6-5\4-3-1-3-1-6\5----0-1-0-------|
G|-1-3-6-3\2-3-1-3-1-6\5----0-1-0-8-\5b-|
C|-1-3-6-----3-1-3-1-6\5----0-1-0-------|


3. Black Ice
Tuning: Drop C (DAFCGC)
Intro
D|-15-13----------12---------|
A|-------12-14-15------------|
F|-------------------12h14~~-|
C|---------------------------|
G|---------------------------|
C|---------------------------|x13

Verses
D|---------|
A|---------|
F|------33-|
C|------22-|
G|-12\\-11-|
C|-12\\-11-|

Chorus
D|----------------------------------------------|
A|----------------------------------------------|
F|-------------------------------------3333-----|
C|-------------------------------------2222-----|
G|-3-2-0-2-222-3-2-0-2-222-3-2-0-2-222-1111-000-|
C|-3-2-0-2-222-3-2-0-2-222-3-2-0-2-222-1111-000-|
PM         ***         ***         *** 

4. Freedom Fighters
Tuning: Drop C (DAFCGC)
Intro
D|-------2-/3h5p3p2h3p2---------3-------2-2h3p2---------|
A|---3------------------3---3-------3-----------3p2---2-|
F|-2---2------------------2---2---2---2-------------3-2-|
C|----------------------------------------------------0-|
G|------------------------------------------------------|
C|------------------------------------------------------|

Verses
D|-------------------------------------|
A|-------------------------------------|
F|-44-77-------------------------------|
C|-44-77-55-44-00-/8-8-8-7--10\9-555h7-|

Jo Harman – Cold Heart chords

 Jo Harman – Cold heart
Capo on 1

Intro
 C F   x4

Verse 1
   C F C F       
Hold out your hand, up to my face
           Dm C F 
A temperature gage if you will
    C F C F 
Drop to your knees, and rest a may while
      Dm E Am  
For I need to see, that it’s real

Chorus
                        F D#m/C# C G 
‘Cause I’m treaded, broken glass made my mind up
         F D/F# G 
And I’m trying, to pick us a part
         F7 G7 
You got warm hands,      and a cold heart

Interclude
 C F   x2

Verse 2
  C F C F     
Dirt on my tongue, will push you away  
     Dm C F 
I learned not to beg you to stay
 C F C F 
I am alone, alone and so tired
                   Dm E Am  
Too many times I have raced to a lie

Chorus
                        F D#m/C# C G 
‘Cause I’m treaded, broken glass made my mind up
         F D/F# G 
And I’m trying, to pick us a part
         F7 G7 
You got warm hands,      and a cold heart

Interclude
 C F   x2



Bridge
   Am C/B C 
I don’t wanna wait in vain
    Am C/B C  
I don’t wanna stay the same
   Am C/B C F 
I don’t wanna wait in vain
 G  x2

Chorus
                        F D#m/C# C G 
‘Cause I’m treaded, broken glass made my mind up
         F D/F# G 
And I’m trying, to pick us a part
         F7 G7 
You got warm hands,      and a cold heart

Interclude
 C F   x2

Bridge/Outro  x4
   Am C/B C 
I don’t wanna wait in vain (for your love)
    Am C/B C  
I don’t wanna stay the same
   Am C/B C F 
I don’t wanna wait in vain (for your love)
 G  x2

   Am C/B C 
I don’t wanna wait in vain

Cold Company Tabs by Minus The Bear

 -------------------------------------------------------------------------------
                             CODE COMPany - MINUS THE BEAR
-------------------------------------------------------------------------------
:


Tuning:
00:00-0:36
e|------------------------------------------------15-----19-15-----19-15-----|
B|----17------19------17------19------17------19----17-15-----19-15-----19-15|
G|------14------16------14------16------14------16---------------------------|X 4
D|16------19------16------19------16------19---------------------------------|
A|--14------16------14------16------14------16-------------------------------|
E|---------------------------------------------------------------------------|
 0:36-0:43                           0:48
e|19-12-15--------19-12-15---------------------------------------------------|
B|--------17-12-15--------19-12-15-12-----------------10-7-14-7-10-7-10/12---|
G|---------------------------------------------------------------------------|
D|---------------------------------------------------------------------------|
A|---------------------------------------------------------------------------|
E|------------------------------------7-5-7-5-2-0-2-0------------------------|
                       repeat
e|---------------------------------------------------------------------------|
B|---------10-7-17-7-19------------------------------------------------------|
G|---------------------------------------------------------------------------|
D|---------------------------------------------------------------------------|
A|---------------------------------------------------------------------------|
E|7-5-7-5---------------2-0-2-0----------------------------------------------|
 1:15
e|-----------------------------------------------------------------------------|
B|12-0-7-14-0-10-15-0-15-0-10-17-12-7-14-7-15-7-10-17-7-19-7-10-17-12-7-14-7---|
G|-----------------------------------------------------------------------------|
D|-----------------------------------------------------------------------------|
A|-----------------------------------------------------------------------------|
E|-----------------------------------------------------------------------------|

e|------------------------------------------------------------/19-15-------19|
B|15-7-10-17-7-10-19-7-10-17-7--10-7-12-7-14-7-15-7-17-7-19-7/-------19-15---|
G|---------------------------------------------------------------------------|
D|---------------------------------------------------------------------------|
A|---------------------------------------------------------------------------|
E|---------------------------------------------------------------------------|
             1:26
e|15-------------------------------------------------------------------------|
B|---19-15-12----------------------------------------------------------------|
G|--------------------------------------------------------9------12--12------|
D|-----------7-7-7-7---2-2-2---4---4---4-----4-----4-9------------------7-7--|
A|-----------------------------------------------------0-9-9-0-10--10--------|
E|------------7-7-7-0-2-2-2-0-3-3-3-3-5-5-7-5-5-7-5-9-9----------------5-5---|
                                                  then repeat riff 3 & 4
e|-----------------------------------------------------------------------------|
B|--------12-14-17--------------------------19-19------------------------------|
G|--------14-16-19---------18-16-14---------21-21------------------------------|
D|-----------------------------------------------------------------------------|
A|-----------------------------------------------------------------------------|
E|5-7-5-7-----------2-0-2-0----------2-0-2-0-----------------------------------|
 2:40
e|-------------------2-0-----2-2-0------------------------0----------------------|
B|----5-5-7---0-2--2-2-0-----2-2-0------------------------0-----5-7-0---

Cold Blooded Old Times chords – Smog V2

 The song is tuned half-step down. (In other words: Eb, Ab, Db, Gb, Bb, Eb)

(Intro):  G G 
Cold-blooded old times
               F 
Cold-blooded old times
            E F G 
Cold-blooded old times

 G 
The type of memories
         F 
that turn your bones to glass
           E F G 
turn your bones to glass

 Bm 
mother came rushing in
 C 
she said we didn't see a thing
 G 
we said we didn't see a thing

 Bm 
and father left at eight
 C 
nearly splintering the gate
 G 
cold-blooded old times

 G 
Cold-blooded old times
           F 
Cold-blooded old times
       E F G 
Cold-blooded old times

 G 
the type of memories
           F 
that turn your bones
 E F G 
turn your bones to glass

and though you were
 Bm 
just a little squirrel
 C 
you understood every word

 Bm 
and in this way
 C 
they gave you clarity
 G 
a cold-blooded clarity

 G 
Cold-blooded old times
           F 
Cold-blooded old times
    E F G 
Cold-blooded old times

though how can I stand
 Bm 
and laugh with the man
 C G 
who redefined your body?

how can I stand
 Bm 
and laugh with the man
 C G 
who redefined your body?

 G 
those cold-blooded old times
            F 
cold-blooded old times
 E F G 
cold-blooded old times

(Keep strumming that G for the outtro)

Baby Its Cold Outside chords – Dean Martin V2

 Preped's tab redone for ease of reading. I didnt tell you who sings at exactly 
what times. Listen for the song for the.  I matched the Chords to the lyrics 
instead of the lyrics to the words rhythm wise.  You're smart, I'm sure you'll get 
it.  If I messed up anything in copying it over, let me know and Ill edit it. :) Merry Christmas



   F F7 
I really can't stay
               F F7 
But baby it's cold outside
      Gm7 C7 
I've got to go 'way
               Gm7 C7 
But baby it's cold outside
      F F7 
This evening has been
                     F F7 
Been hoping that you'd drop in
         Cm7 
So very nice
I'll hold your hands, they're just like ice


    Bb 
My mother will start to worry
Beautiful words you're humming
     Bb7 
And father will be pacing the floor
Listen to the fireplace roar
    F Dm7 
So really I'd better scurry
Beautiful, please don't hurry
       G7 C7 
Well, maybe just a half a drink more
Put some records on while I pour


     F F7 
The neighbors might think
               F F7 
But baby it's bad out there
      Gm7 C7 
Say, what's in this drink?
               Gm7 C7 
No cabs to be had out there
   F F7 
I wish I knew how
                    F F7 
Your eyes are like starlight now
              Cm7 
To break the spell
I'll take your hat, your hair looks swell


   Bb 
I ought to say no, no, no sir
Mind if I move in closer?
    Bb7 C7 
At least I'm gonna say that I tried
What's the sense of hurtin' my pride?
   F F7  
I really can't stay
               F 
Oh baby don't hold out
 F7 G7 C7 F 
Ah but it's cold  out  side
  Baby it's cold outside

 
   F F7 
I simply must go
               F F7 
But baby it's cold outside
     Gm7 C7 
The answer is no
               Gm7 C7 
But baby it's cold outside
     F F7 
The welcome has been
                F F7 
How lucky that you dropped in
             Cm7 
So nice and warm
Look out that window at that storm


    Bb 
My sister will be suspicious
Gosh your lips look delicious
    Bb7 
My brother will be there at the door
Waves upon a tropical shore
    F Dm7 
My maiden aunt's mind is vicious
Gosh your lips are delicious
       G7 C7 
Well, maybe just a cigarette more
Never such a blizzard before


      F F7 
I've got to get home
                F F7 
But baby you'd freeze out there
      Gm7 C7 
Say, lend me a coat
                 Gm7 C7 
It's up to your knees out there
        F F7 
You've really been grand
                       F F7 
I'm thrilled when you touch my hand
               Cm7 
Why don't you see
How can you do this thing to me?


         Bb 
There's bound to be talk tomorrow
Think of my lifelong sorrow
    Bb7 C7 
At least there will be plenty implied
If you caught pneumonia and died
   F F7 
I really can't stay
               F 
Get over that hold-out
 F7 G7 <sp

Cold Flame Tabs by Washya

 -----------------------------------------------------------------------------
                           Cold Flame - Washya
-----------------------------------------------------------------------------
Tuning: Drop D (EBGDAD)
Intro
E|-------10-9----------10-9----------10-9----------8-7---------8-7---|
B|---7--------10---7--------10---7--------10---5-------8---5-------8-|
G|-7---7---------7---7---------7---7---------5---5-------5---5-------|
D|-------------------------------------------------------------------|
A|-------------------------------------------------------------------|
D|-------------------------------------------------------------------|

E|-------8-7---10-10-10-10-10-10-9-8-8-8-8-8-8-7-|
B|---5-------8-7--7--7--7--7--7--7-5-5-5-5-5-5-5-|
G|-5---5-------7--7--7--7--7--7--7-5-5-5-5-5-5-5-|
D|-----------------------------------------------|
A|-----------------------------------------------|
D|-----------------------------------------------|x3

Verses
E|------------------------------------------------------------|
B|------------------------------------------------------------|
G|------------------------------------------------------------|
D|------------------------------------------------------------|
A|-12-12-12-10-12-12-12-10-12-12-12-10-10h12-12-12\8h10-5-----|
D|-0--0--0--0--0--0--0--0--0--0--0--0--0--0--0------------7b~-|
PM *  *  *  *  *  *  *  *  *  *  *  *  *  *  * 

Chorus
E|-------------------------------------------------------------------------|
B|-------------------------------------------------------------------------|
G|-------------------------------------------------------------------------|
D|-------------------------------------------------------------------------|
A|-12\\-0-10-12-0-12-10-8-10-0-5/8-0-10\8/10-0-5/8-0-5/8-0-333-5-0-8-7-0-1-|
D|-12\\-0-10-12-0-12-10-8-10-0-5/8-0-10\8/10-0-5/8-0-5/8-0-333-5-0-8-7-0-1-|

Cold Tabs by Five Finger Death Punch

 ----------------------------------------------------------------------------
                               Cold
                        Five Finger Death Punch
----------------------------------------------------------------------------

Cold. It might be an overused song title, but if anyone deserves respect it would be 
Five Finger Death Punch. This is a slower, heartwarming, and powerful song. The guitar solo 
isn’t extremely difficult so it is “novice” friendly. Enjoy!

Username: dkm817 (same on X box live)
Youtube Cover: http://www.youtube.com/watch?v=Fd50cwnu_r0
Email: guitardrums@rockfan.com

Guitar 1 Rhythmic (B  F#  B  E  G# C#)
Guitar 2 Lead     (B  F#  B  E  G# C#)

NOTE: This was exported off of guitar pro.


Guitar 1


Start at (01:00)


                                                          H.           Q
-------|-------|-------|-------|-------|-------|-------|--------------------|
-------|-------|-------|-------|-------|-------|-------|--------------------|
-------|-------|-------|-------|-------|-------|-------|--------------------|
-------|-------|-------|-------|-------|-------|-------|--4------------2----|
-------|-------|-------|-------|-------|-------|-------|--4------------2----|
-------|-------|-------|-------|-------|-------|-------|--4------------2----|


  W                   Q    Q    Q    Q       W
-------------------|----------------------|-------------------|
-------------------|----------------------|-------------------|
-------------------|-------2----L----L----|--L----------------|
--L----------------|------------4----L----|--L----------------|
--L----------------|--4----L----L----5----|--L----------------|
--L----------------|----------------------|-------------------|


       PM
  Q    E  Q    E  Q       Q    Q    Q    Q       Q.     Q.     Q
-----------------------|----------------------|---------------------|
-----------------------|----------------------|---------------------|
-----------------------|----------------------|--6------6------7----|
--4----4--4----4--2----|--L----2----2----2----|--6------6------7----|
--4----4--4----4--2----|--L----2----2----2----|--4------4------5----|
--4----4--4----4--2----|--L----2----2----2----|---------------------|


               PM
  E  Q.     E  Q.        H.           Q       W
----------------------|--------------------|-------------------|
----------------------|--------------------|-------------------|
--L--7------x---------|--------------------|-------------------|
--L--7------x--2------|--4-----------------|-------------------|
--L--5------x--2------|--4------------7----|--L----------------|
---------------2------|--4------------6----|--L----------------|


                                   PM PM              PM      PM
   Q.      Q.     Q       H        E  E  Q       Q    E  Q    E  Q
-----------------------|----------------------|-----------------------|
-----------------------|----------------------|-----------------------|
-----------------------|----------------------|-----------------------|
--11------11-----------|-----------9--7--6----|--4----4--4----4--2----|
---7-------7-----------|-----------9--7--6----|--4----4--4----4--2----|
---7-------7------9----|--L--------9--7--6----|--4----4--4----4--2----|


                                                          PM PM
  Q    Q      H           Q.     Q.     Q       E  Q.     E  E  Q
-----------------------|---------------------|-----------------------|
-----------------------|---------------------|-----------------------|
-----------------------|--6------6------7----|--L--------------------|
--L----2---------------|--6------6------7----|--L--0------7--6--2----|
--L----2---------------|--4------4------5----|--L--0------7--6--2----|
--L----2----/14--------|---------------------|-----0------7--6--2----|


                  PM PM PM PM    PM         PM PM PM PM
  Q    E  E  Q    S  S  S  S     E