Tag: coldplay

The Scientist Acoustic guitar chords by Coldplay

THE SCIENTIST (ACOUSTIC) - COLDPLAY

there seems to be a lot of confusion about the key of the song. 
it does state below that a capo is required, but for those that don't have a capo,
I have taken the liberty of putting a set of chords on which do not require a capo
and will allow you to play along with the cd.

(CAPO ON 3RD FRET)           (NO CAPO)

  Bm7 (x20202)            Dm7 (x57565)
    G (320003)             Bb (688766)
  G * (320005)
    D (xx0232)              F (x,8,10,10,10,x)
Dsus2 (xx0230)          Fsus2 (x,8,10,10,8,x)
Dmaj7 (xx0222)
    A (x02220)              C (x35553)
   A7 (x02020)             C7 (x35353)


[Intro]

| Bm7    | G    G *| D      | Dsus2  |
| Bm7    | G    G *| D      | Dsus2  |


[Verse 1]

Bm7         G                      G * D                      Dsus2
 come up to meet you, tell you i'm sorry, you don't know how lovely you are
Bm7       G                    G * D                     Dsus2
 i had to find you, tell you i ne-ed you, tell you i'll set you apart
Bm7           G                       G * D                   Dsus2
 tell me your secrets and ask me your questions, oh lets go back to the start
Bm7         G                  G * D                 Dsus2
 running in circles, coming in ta-les, heads are a science apart


[Chorus 1]

G                      G * D               Dsus2
 nobody said it was easy,   it's such a shame for us to part
G                      G * D             Dsus2                 A
 nobody said it was easy,   no-one ever said it would be this hard
A7                      ( D )
 oh take me back to the start


[Interlude 1]

| D      | G   G *| D      | D   Dmaj7 |
| Bm7    | G      | D      | Dsus2     |


[Verse 2]

Bm7         G                       G * D                   Dsus2
 i was just guessing at numbers and f--igures, pulling the puzzles apart
Bm7           G                    G * D                        Dsus2
 questions of science, science and pr-ogress, do not speak as loud as my heart
Bm7          G                      G * D                 Dsus2
 tell me you love me, come back and ha-unt me, oh and i rush to the start
Bm7         G                G * D            Dsus2      D
 running in circles, chasing t--ales, coming back as we are


[Chorus 2]

G                      G * D                 Dsus2
  nobody said it was easy,  oh it's such a shame for us to part
G                      G * D            Dsus2                 A
 nobody said it was easy,  no-one ever said it would be so hard
A7                     ( D )
 i'm going back to the start


[Interlude 2]

| D      | G      | D      | D      |
| Bm7    | G      | D      | D      |


[Outro]

Bm7    G            D
  oh - ooo-oo-oo-oo-ooo
Bm7    G            D
  ah - ooo-oo-oo-oo-ooo
Bm7    G            D
  oh - ooo-oo-oo-oo-ooo
Bm7    G            D
  oh - ooo-oo-oo-oo-ooo


Something Just Like This Piano Chords by Coldplay

Rhythm:
G  A  Bm  A
G  A  Bm


[Verse 1]
             A             G          A             Bm
I've been reading books of old, the legends and the myths
     A           G          A           Bm
Achilles and his gold, Hercules and his gifts
   A           G           A            Bm     
Spiderman's control and Batman with his fists
A           G                  A         Bm         
And clearly I don't see myself upon that list


[Pre-Chorus 1]
                A           G            A         Bm
She said, where'd you wanna go, how much you wanna risk?
           A            G                A        Bm
I'm not looking for somebody with some superhuman gifts
       A      G         A      Bm
Some superhero, some fairytale bliss
         A           G              A        Bm
Just something I can turn to, somebody I can kiss


[Chorus 1]
           A              G                   A           Bm
I want something just like this, doo-doo-doo, doo-doo-doo
             A       G             A           Bm
Doo-doo-doo, doo-doo, doo-doo-doo, doo-doo-doo
              A              G                   A           Bm
Oh I want something just like this, doo-doo-doo, doo-doo-doo       
             A       G             A           Bm
Doo-doo-doo, doo-doo, doo-doo-doo, doo-doo-doo
              A              G     A  Bm   A  G  A  Bm
Oh I want something just like this
           A              G     A  Bm   A  G  A  Bm
I want something just like this


[Verse 2]
             A             G          A             Bm
I've been reading books of old, the legends and the myths
       A            G              A        Bm
The testaments they told, the moon and its eclipse
      A        G             A         Bm    
And Superman unrolls, a suit before he lifts
A         G                  A           Bm
  But I'm not the kind of person that it fits


[Pre-Chorus 2]
                A           G            A         Bm
She said, where'd you wanna go, how much you wanna risk?
           A            G                A        Bm
I'm not looking for somebody with some superhuman gifts
       A      G         A      Bm
Some superhero, some fairytale bliss
         A           G              A        Bm
Just something I can turn to, somebody I can miss


[Chorus 2]
           A              G     A  Bm   A  G  A  Bm
I want something just like this
           A              G     A  Bm   A  G  A  Bm
I want something just like this
              A              G                   A           Bm
Oh I want something just like this, doo-doo-doo, doo-doo-doo
             A       G             A              Bm
Doo-doo-doo, doo-doo, doo-doo-doo, doo-doo-doo-oo
              A              G                   A           Bm
Oh I want something just like this, doo-doo-doo, doo-doo-doo       
             A       G             A              Bm
Doo-doo-doo, doo-doo, doo-doo-doo, doo-doo-doo-oo


[Pre-Chorus 3]
      D/F#        G            A         Bm
Where'd you wanna go, how much you wanna risk?
           D/F#         G                A        Bm
I'm not looking for somebody with some superhuman gifts
       D/F#   G         A      Bm
Some superhero, some fairytale bliss
         D/F#        G              A        Bm
Just something I can turn to, somebody I can kiss
           D/F#          (G)      
I want something just like this
[Outro]

                             G     A  Bm  Dmaj7
Oh I want something just like this
G  A  Bm  Dmaj7
G  A  Bm  Dmaj7
G  A  Bm  
              A              G     A  Bm   Dmaj7
Oh I want something just like this
G  A  Bm  Dmaj7
G  A  Bm  Dmaj7
G  A  Bm  
              A              G     A  Bm   Dmaj7
Oh I want something just like this
G  A  Bm  Dmaj7

Something Just Like This chords by Coldplay

Chords

————

G     3x000x

A     x0222x

Bm    x2443x (or play Bm7 to avoid bar chord: x2023x)

D/F#  2x023x

(See bottom of tab for strumming patterns)

[Intro]

Lead:

e|—————————————–|—————————————-|

B|———10——–10————-10—–|———10——–10————-10—-|

G|–7—-7—-7—-7—-7—-7—-7—-7-7-|–7—-7—-7—-7—-7—-7—-7—-7–|

D|—————————————–|—————————————-|

A|—————————————–|—————————————-|

E|—————————————–|—————————————-|

Rhythm:

G  A  Bm  A

G  A  Bm

[Verse 1]

             A             G          A             Bm

I’ve been reading books of old, the legends and the myths

     A           G          A           Bm

Achilles and his gold, Hercules and his gifts

   A           G           A            Bm     

Spiderman’s control and Batman with his fists

A           G                  A         Bm         

And clearly I don’t see myself upon that list

[Pre-Chorus 1]

                A           G            A         Bm

She said, where’d you wanna go, how much you wanna risk?

           A            G                A        Bm

I’m not looking for somebody with some superhuman gifts

       A      G         A      Bm

Some superhero, some fairytale bliss

         A           G              A        Bm

Just something I can turn to, somebody I can kiss

[Chorus 1]

           A              G                   A           Bm

I want something just like this, doo-doo-doo, doo-doo-doo

             A       G             A           Bm

Doo-doo-doo, doo-doo, doo-doo-doo, doo-doo-doo

              A              G                   A           Bm

Oh I want something just like this, doo-doo-doo, doo-doo-doo       

             A       G             A           Bm

Doo-doo-doo, doo-doo, doo-doo-doo, doo-doo-doo

              A              G     A  Bm   A  G  A  Bm

Oh I want something just like this

           A              G     A  Bm   A  G  A  Bm

I want something just like this

[Verse 2]

             A             G          A             Bm

I’ve been reading books of old, the legends and the myths

       A            G              A        Bm

The testaments they told, the moon and its eclipse

      A        G             A         Bm    

And Superman unrolls, a suit before he lifts

A         G                  A           Bm

  But I’m not the kind of person that it fits

[Pre-Chorus 2]

                A           G            A         Bm

She said, where’d you wanna go, how much you wanna risk?

           A            G                A        Bm

I’m not looking for somebody with some superhuman gifts

       A      G         A      Bm

Some superhero, some fairytale bliss

         A           G              A        Bm

Just something I can turn to, somebody I can miss

[Chorus 2]

           A              G     A  Bm   A  G  A  Bm

I want something just like this

           A              G     A  Bm   A  G  A  Bm

I want something just like this

              A              G                   A           Bm

Oh I want something just like this, doo-doo-doo, doo-doo-doo

             A       G             A              Bm

Doo-doo-doo, doo-doo, doo-doo-doo, doo-doo-doo-oo

              A              G                   A           Bm

Oh I want something just like this, doo-doo-doo, doo-doo-doo       

             A       G             A              Bm

Doo-doo-doo, doo-doo, doo-doo-doo, doo-doo-doo-oo

[Pre-Chorus 3]

      D/F#        G            A         Bm

Where’d you wanna go, how much you wanna risk?

           D/F#         G                A        Bm

I’m not looking for somebody with some superhuman gifts

       D/F#   G         A      Bm

Some superhero, some fairytale bliss

         D/F#        G              A        Bm

Just something I can turn to, somebody I can kiss

           D/F#          (G)      

I want something just like this

  

[Interlude]

   G              A        Bm               Bsus4   G              D           A     D     A   

e|—————-0–0–0–2–2–2–2–2–2–0–2-|-3–3–3–3–3–2–2–2–2–0–0–2–2–0–0–0-|

B|-0–0–0–0–0–2–2–2–3–3–3–3–3–3–3–3-|-3–3–3–3–3–3–3–3–3–2–2–3–3–2–2–2-|

G|-0–0–0–0–0–2–2–2–4–4–4–4–4–4–4–4-|-0–0–0–0–0–2–2–2–2–2–2–2–2–2–2–2-|

D|-0–0–0–0–0–2–2–2–4–4–4–4–4–4–4–4-|-0–0–0–0–0–0–0–0–0–2–2–0–0–2–2–2-|

A|-x–x–x–x–x–0–0–0–2–2–2–2–2–2–2–2-|-x–x–x–x–x————–0–0——–0–0–0-|

E|-3–3–3–3–3———————————-|-3–3–3–3–3———————————-|

   1  +  2  +  3  +  4  +  1  +  2  +  3  +  4  +   1  +  2  +  3  +  4  +  1  +  2  +  3  +  4  +

   D/F#           A        Bm               Bsus4   G              D           A    

e|—————-0–0–0–2–2–2–2–2–2–0–2-|-3–3–3–3–3–2–2–2–2–0–0—————-|

B|-3–3–3–3–3–2–2–2–3–3–3–3–3–3–3–3-|-3–3–3–3–3–3–3–3–3–2–2—————-|

G|-2–2–2–2–2–2–2–2–4–4–4–4–4–4–4–4-|-0–0–0–0–0–2–2–2–2–2–2—————-|

D|-0–0–0–0–0–2–2–2–4–4–4–4–4–4–4–4-|-0–0–0–0–0–0–0–0–0–2–2—————-|

A|-x–x–x–x–x–0–0–0–2–2–2–2–2–2–2–2-|-x–x–x–x–x————–0–0—————-|

E|-2–2–2–2–2———————————-|-3–3–3–3–3———————————-|

   1  +  2  +  3  +  4  +  1  +  2  +  3  +  4  +   1  +  2  +  3  +  4  +  1  +  2   

[Outro]

(Dmaj7 = x0022x)

                             G     A  Bm  Dmaj7

Oh I want something just like this

G  A  Bm  Dmaj7

G  A  Bm  Dmaj7

G  A  Bm 

              A              G     A  Bm   Dmaj7

Oh I want something just like this

G  A  Bm  Dmaj7

G  A  Bm  Dmaj7

G  A  Bm 

              A              G     A  Bm   Dmaj7

Oh I want something just like this

G  A  Bm  Dmaj7

(Outro solo – shown for acoustic guitar, actually played higher up neck on electric):

e|———————–|—————-|———–14—————————|

B|–12——12–14–14—|—14–15–15—|—14–15——15–14–15—————|

G|———————–|—————-|—————————————-|

D|———————–|—————-|—————————————-| x4

A|———————–|—————-|—————————————-|

E|———————–|—————-|—————————————-|

e|—————————————-|—————————————-|

B|–12—-12–12–12-12p10——12p10—–|–12—-12–12–12-12p10——14b15r14–|

G|————————-11———11–|————————-11————-|

D|—————————————-|—————————————-| x3

A|—————————————-|—————————————-|

E|—————————————-|—————————————-|

e|———————–|—————-|———–14—————————|

B|–12——12–14–14—|—14–15–15—|—14–15——15–14–15—————|

G|———————–|—————-|—————————————-|

D|———————–|—————-|—————————————-|

A|———————–|—————-|—————————————-|

E|———————–|—————-|—————————————-|

p = pull-off

b = bend

r = release

————————————

Strumming Patterns (all down strums)

————————————

[Intro] + [Verse]                                   

   G              A        Bm             A         

e|————————————————|

B|-0————–2——–3————–2——-|

G|-0————–2——–4————–2——-|

D|-0————–2——–4————–2——-|

A|-x————–0——–2————–0——-|

E|-3———————————————-|

   1  +  2  +  3  +  4  +  1  +  2  +  3  +  4  +   

[Pre-Chorus]

   G              A        Bm             A     

e|————————————————|

B|-0–0–0–0–0–2–2–2–3–3–3–3–3–2–2–2-|

G|-0–0–0–0–0–2–2–2–4–4–4–4–4–2–2–2-|

D|-0–0–0–0–0–2–2–2–4–4–4–4–4–2–2–2-|

A|-x–x–x–x–x–0–0–0–2–2–2–2–2–0–0–0-|

E|-3–3–3–3–3———————————-|

   1  +  2  +  3  +  4  +  1  +  2  +  3  +  4  +   

[Chorus]

   G           A           Bm             A     

e|—-x———–x———–x——————-|

B|-0–x–0–0–2–x–2–2–3–x–3–3–3–2–2–2-|

G|-0–x–0–0–2–x–2–2–4–x–4–4–4–2–2–2-|

D|-0–x–0–0–2–x–2–2–4–x–4–4–4–2–2–2-|

A|-x–x–x–x–0–x–0–0–2–x–2–2–2–0–0–0-|

E|-3–x–3–3—–x———–x——————-|

   1  +  2  +  3  +  4  +  1  +  2  +  3  +  4  + 

x = mute

Yellow Acoustic chords – Coldplay Vsion 8

 CAPO 4 

Intro  G G 
Look at the stars,
                          D 
Look how they shine for you,
                     C 
And everything you do,
                         G 
Yeah they were all yellow,

  
I came along
                     D 
I wrote a song for you
                         C 
And all the things you do
                        G 
And it was called yellow

                      D 
So then I took my turn
                           C 
Oh what a thing to have done
                     G 
And it was all yellow

 C 
Your skin
 Em D 
Oh yeah your skin and bones
 C Em D    
Turn into something beautiful
 C Em D 
You know you know I love you so
C                      G (carry on to next verse)
You know I love you so

 G 
I swam across
                   D 
I jumped across for you
                    C 
Oh what a thing to do
                        G 
Cause you were all yellow

 G 
I drew a line
                 D 
I drew a line for you
                    C 
Oh what a thing to do
                     G 
And it was all yellow

 C 
Your skin
 Em D 
Oh yeah your skin and bones
 C Em D 
Turn into something beautiful
 C Em D C 
You know for you I'd bleed myself dry
                           G 
For you I'd bleed myself dry

(carry on as if it were a verse with the progression G D C G)

      G D 
It's true look how they shine for you
                         C 
Look how they shine for you
                         G 
Look how they shine for...
                         D 
Look how they shine for you
                         C 
Look how they shine for you

Look how they shine
  
 G D 
Look at the stars look how they shine for you
                           C G 
And all the things that you do








This is is my first tab and one of the first songs I learned to play, enjoy! :-) 

Everglow chords – Coldplay V2

 Arranged for guitar by Paul Davids
Capo fret 4
         
[INTRO] 
/Piano arranged for guitar (or just strum the chords)\

                           Am F C Em7 
|-----------------------|-----8--7--5-----3--------|--0--3--0----------------|
|-----------------------|--5-------------------1-3-|--1--------3---------1-3-|
|-------------------5-7-|--5--------5-----5--------|-----------0-------------|
|-----------------------|-----------3--------------|-----------2-------------|
|-----------------------|--0-----------------------|--3----------------------|
|-----------------------|--------------------------|-----------0-------------|


  Am F C G Am F     
--0-----------------------|-------0-------------------|-----8--7--5-----3--------|
-----3--1-----------------|--1--3------3--------------|--5-------------------1-3-|
-----------2-----0--------|--0---------0----------5-7-|--5--------5-----5--------|
--------------------------|---------------------------|-----------3--------------|
--0-----------------------|--3------------------------|--0-----------------------|
-----------1----------(3)-|------------3--------------|--------------------------|


   C Em7 Am F Gsus4 G 
--0--3--0----------------|--0-----------------------|--------------------------|
--1--------3---------1-3-|-----3--1-----------------|--1-------------------1-3-|
-----------0-------------|-----------2-----0-----0--|------0-------------------|
-----------2-------------|--------------------3-----|--0-----0-----------------|
--3----------------------|--0-----------------------|-------------2------------|
-----------0-------------|-----------1--------------|--3-----------------------|


   Am F G                               
--0----------------------|------------------------------|
-----3--1----------------|----1--3-3---1-0--------------|
-----------2-----0-------|----0----0-----0--------------|
-------------------------|------------------------------|
--0----------------------|------------------------------|
-----------1-------------|----3----3-----3--------------|

 

[VERSE 1]
           Am F 
Well they say people come
 C Em7 
Say people go
         Am F C G 
This particular diamond is extra special

        Am F  
I know you might be gone, 
          C Em7 
and the world may not know
         Am F Gsus4 G 
Still I see you celestial

[BIDGE]
|:    Am F       |    C G     :| 2x

[VERSE2]
        Am F 
Like a lion you ran
 C Em7 
God his hero
         Am F 
Like an eagle you circle
 C G 
Perfect of all

    Am F 
So how come things move on?
     C Em7 
How come cars don't slow?
 Am F Gsus4 G 
When it feels like the end of my world
        Am F Gsus4 G 
When I should but I can't let you go


[CHORUS 1]
               Am F C Em7 
But when I'm cold,        coooohoohooold
    Am F C G 
When I'm cold,    cooohooohooold
           Am F 
There's a light that you give me
      C Em7 
When I'm in shadows
          Am F G         
There's a feeling of ever, everglow


[BIDGE 2]
|:    Am F       |    <sp

Closer To Home chords – Coldplay

 Closer To Home - ColdPlay Ft. Nikolaj Coster-Waldau/Jaime Lannister 

Contributor: Amit Pallab

Intro:  C F G C C G 
Could you lend me a hand..

        F G  
As I only got one.

  C 
I miss my fingers..

       F G 
Like you miss your son.


  C G   
Are you thinking about Joffrey

           F G  
such a spirited lad.

  C 
I was his uncle..

      F G   
I was also his Dad

  C F  
Around the world..

      G C  
My heart had to roam

  C F  
Now I am looking for something..

  G C  
A Little Closer to home..


  C F 
Closer to home..

  G C 
Closer to home..

  C F 
I found my little tree..

  G C  
With a branch of our own..

  C F  
Closer to home..

  G C  
Closer to home..

  C F 
During my family

  G C  
Stays on throne.

I Ran Away chords – Coldplay V3

 -------------------------------------------------------------------------------
                             I RAN AWAY - Coldplay
-------------------------------------------------------------------------------

Standard Tuning
No Capo

This is a pretty easy song once you get all the chord shapes down.

Chords:

   C#m7    Emaj4/G#  Aadd9 E F#11 D6/9 C#m F#m7 

e|-----| |-----| |-----| |-----| |-----| |-----| |-4---| |-2---|
B|-----| |-----| |-----| |-----| |-----| |-----| |-5---| |-2---|
G|-9---| |-4---| |-6---| |-13--| |-15--| |-11--| |-6---| |-4---|
D|-11--| |-6---| |-7---| |-14--| |-16--| |-12--| |-6---| |-2---|
A|-11--| |-6---| |-7---| |-14--| |-16--| |-12--| |-4---| |-4---|
E|-9---| |-4---| |-5---| |-12--| |-14--| |-10--| |-x---| |-2---|


Intro:

 C#m7  Emaj4/G#  Aadd9  Emaj4/G# x4


 C#m7        Emaj4/G#
I ran away from you

 Aadd9              Emaj4/G#
That's all I ever do

 C#m7           Emaj4/G#
And though I started here

 Aadd9             Emaj4/G#
I ran away from you


 C#m7               Emaj4/G#
I'm gonna come on in

 Aadd9            Emaj4/G#
And see it through


 C#m7         Emaj4/G#
I ran away from you

 Aadd9              Emaj4/G#
That's all I ever do


 C#m7                  Emaj4/G#
And when I heard you call to

 Aadd9           Emaj4/G#
Come back to me

 C#m7                    Emaj4/G#
And though I should stay

 Aadd9                      Emaj4/G#
I don't have the stomach to

Chorus: 

 E F#11 
Everyone I know

            D6/9 Aadd9 
Says I'm a fool to mess with you

 E F#11 
Everyone I know

             D6/9 Aadd9 
Says it's a stupid thing to do


 E F#11 
I have your love on call

            D6/9 Aadd9 
And yet my day is not so full

 D6/9 Aadd9 
There might be nothing left to do

          D6/9 Aadd9 
So I ran away from you


 C#m7                 Emaj4/G#
I'm gonna come on in

 Aadd9             Emaj4/G#
My eyes are closed

 C#m7                Emaj4/G#
I can feel it there

 Aadd9             Emaj4/G#
The sun's so close

 C#m7                 Emaj4/G#
I'm gonna come on out

 Aadd9          Emaj4/G#
And burn the sky

 C#m7                     Emaj4/G#
A star arose in my own cage

 Aadd9          Emaj4/G#
I'm stuck in line

 C#m7          Emaj4/G#
And in a cage

 Aadd9             Emaj4/G#
Just a single star

 C#m7       Emaj4/G#
I sing for

Chorus: 

 E F#11 
Everyone I know

            D6/9 Aadd9 
Says I'm a fool to mess with you

 E F#11 
Everyone I know

             D6/9 Aadd9 
Says it's a stupid thing to do


 E F#11 
I have your love on call

            D6/9 Aadd9 
And yet my day is not so full

 D6/9 Aadd9 
There might be nothing left to do

          D6/9 Aadd9 
So I ran away from you


Instrumental:

 C#m F#m7 C#m/E F#m7 C#m F#m7 C#m/E F#m7 C#m F#m7 C#m/E F#m7 C#m F#m7 C#m/E F#m7 C#m F#m7 C#m/E Aadd9 E F#11 D6/9 Aadd9 E F#11 <span

Miracles chords – Coldplay

 Hey guys :D

A reaaly nice song by my favourit band Coldplay! They made this song for the movie "Unbroken". 
Tried to figure out the chords and just want to share them with you guys :)



    A C#m H 
e|-0---0---0----|
B|-0---0---0----|
G|-7---7---9----|
D|-8---7---10---|
A|-8---5---10---|
E|-x---x---x----|   This is just how I would play these chords, keep in mind I play the chords
                    with those tap numbers while the capo is on 1st.


Capo on 1st

Intro: E - A (4 times)

 E 
From up above I heard
                               A 
The angels sing to me these words
 E 
And sometimes, in your eyes
                           A 
I see the beauty in the world


[Chorus]

 A E/G# F#m 
Oh, now I'm floating so high

I blossom and die
 A E/G# F#m 
Send your storm and your lightning to strike
                       
Right between the eyes


Interlude:  E  -  A  x2


 E 
Sometimes the stars decide
                              A 
To reflect in petals in the dirt
 C#m 
When I look in your eyes
 H A 
I forget all about what hurts


[Chorus]

 A E/G# F#m 
Oh, now I'm floating so high

I blossom and die
 A E/G# F#m 
Send your storm and your lightning to strike

Right between the eyes
        (A*)
And cry 



A* - E - H         (Interlude on cry,the A* is the same A)
AAAAAAAAA
              F#m  -  C#m  -  H    
Believe in miracles



 E A 
Oh hey, I'm floating up above the world now
 E A 
Oh hey, I'm floating up above the world now


Interlude:  A  -  E/G#  -  F#m A  -  E/G#  -  F#m E A 
OH YEA YEA YEAAAAAAAA  Uuuu Uuu Uu..

             E A    -    E  (Hanging E)
(Oh yea yea yeaaaaaaaa)  Uuuu Uuu Uu..

Moses Live chords – Coldplay

 Artist: Coldplay
Song title: Moses
 Coldplay live 2003
 : Edgar Rubio and MacKenzie Shirk

These are the same chords as the other tabs, but I just corrected the reverse tabs and added the intro.


Tune B string 1 step down to an A(EADGAe). If you don't have a tuner or are new to tuning, just loosen the B 
string until it matches the pitch of the 2nd fret of the G string.

Capo on 2nd fret.


Chords used:(Chords are relative to capo)

   A5     Em*    G7 Dadd9 
  -0-   -0-   -0-   -0-
  -0-   -0-   -0-   -0-
  -2-   -x-   -x-   -x-
  -2-   -2-   -4-   -2-
  -0-   -2-   -5-   -3-
  -0-   -0-   -5-   -3-




INTRO:

      A5    Em*           G7 
E|--0000-0000---------0000-------------------|
A|--0000-0000---------0000-------------------|
G|--2222-xxxx---------xxxx-------------------|   X2
D|--2222-2222---------4444-------------------|
A|--0000-2222---------5555-------------------|
E|--0000-0000-0-2-3-0-5555-------------------|

INTRO RIFF:

E|----------------------------------------------------------------------------|
A|----------------------------------------------------------------------------|
G|-14----14-13------------13------13-------13--14-----14-13-------------------|   X2
D|----12--------12--10--------12------12----------12--------------------------|
A|----------------------------------------------------------------------------|
E|----------------------------------------------------------------------------|




INSTRUMENTALS: (Play intro)



VERSE 1:

 A5     Em*
  Come on now
                     G7 
  Don't you want to see
 A5    Em*
  This thing that's
                 G7 
  Happenning to me
 A5      Em*
  Like Moses
                  G7 
  Has power over sea
 A5    Em*
  So You've got
              G7 
  Power over me

ISTRUMENTALS: (play intro)

RIFF:

E|----------------------------------------------------------------------------|
A|----------------------------------------------------------------------------|
G|-14----14-13------------13------13-------13--14-----14-13-------------------|   X2
D|----12--------12--10--------12------12----------12--------------------------|
A|----------------------------------------------------------------------------|
E|----------------------------------------------------------------------------|

VERSE 2: Repeat the same chords as verse 1

 A5      Em*
  Come on now
                      G7 
  Don't you want to know
 A5      Em*
  That you're a refuge
                   G7 
  Somewhere I can go
 A5      Em*
  Your air that
                    G7 
  Air that I can breath
 A5         Em*
  Your my golden
             G7 
  Opportunity

PRECHORUS:

       Dadd9 
  And oh
            G7 
  Oh Yes I would
             Dadd9 
  If I only could
                  G7 
  And You know I would

CHORUS:

             Dadd9 G7 
  And maybe I
            Dadd9 G7 
  Oh maybe I

INSTRUMENTALS: (play intro)

RIFF:

E|------------------------------------------------------------------------------------|
A|------------------------------------------------------------------------------------|
G|-14----14-13------------13------13-------13--14-----14-13---------------------------|  X 2 
D|----12--------12--10--------12------12----------12---------12------12-----12--------|
A|---------------------------------------------------------------13-----13-----13--12-|
E|------------------------------------------------------------------------------------|

VERSE 3:

 A5      Em*
  Come on now
                     G7 
  Don't you want to see
 A5      Em*
  Just what a difference
        

All Your Friends chords – Coldplay V3

 F#m C#m E F#m      
On and on. You're told which side you're on.
 E 
Aaaaahhaaahhaah
 F#m C#m E F#m 
You're forced, you're thrown, to become the scythe to cut the corn.
 C#m D 
Aaaahhaaahhaahhaaa

 D E 
And all your friends they Ride into the sunset
 C#m D 
Fly into the sunset,and away they go.
 D E 
And all your friends they ride into the sunset,
 C#m D 
Fly into the sunset. And away they're thrown
          Bm E F#m 
Into the fire


 F#m C#m E F#m 
Ten Below. A call comes on the radio
 E 
Aaahhaahhaahaa
 F#m C#m E F#m 
Over you go. And red now all the rivers flow.
 C#m D     
The Poppies grow. Aaahhahhaahhaa


 
 D E 
And all your friends they Ride into the sunset
 C#m D 
Fly into the sunset,and away they go.
 D E 
And all your friends they ride into the sunset,
 C#m D 
Fly into the sunset. And they're taken home
          Bm E F#m 
Into the fire
       Bm E F#m 
Open Fire.

Musical interlude same as chorus

       Bm E F#m 
Open fire.
       Bm E F#m 
Open fire.
       Bm E F#m 
Open fire.
      Bm E F# 
Just ride and fire.

Yellow Tabs – Coldplay V8

 -------------------------------------------------------------------------------
                                YELLOW - Coldplay
-------------------------------------------------------------------------------
: Martin Bowers

Tuning: EADGBE*

*NB: This tab is a variation of the original that allows it to be 
     played with standard EADGBE tuning.


Intro (acoustic):

    B                           B        Badd4    
e|--7--7--7--7--7--7--7--7-7-|--7--7--7--0--0--0--0--0--|
B|--7--7--7--7--7--7--7--7-7-|--7--7--7--0--0--0--0--0--|
G|--8--8--8--8--8--8--8--8-8-|--8--8--8--8--8--8--8--8--|
D|--9--9--9--9--9--9--9--9-9-|--9--9--9--9--9--9--9--9--|
A|--9--9--9--9--9--9--9--9-9-|--9--9--9--9--9--9--9--9--|
E|--7--7--7--7--7--7--7--7-7-|--7--7--7--7--7--7--7--7--|
    |  |  |  |  |  |  |  | ˄    |  |  |  |  |  |  |  |
    ▼  ˅  ▼  ˅  ˅  ˅  ▼  ˅ |    ▼  ˅  ▼  ˅  ˅  ˅  ˅  ˅

    B                           B        Badd4    
e|--7--7--7--7--7--7--7--7-7-|--7--7--7--0--0--0--0--0--|
B|--7--7--7--7--7--7--7--7-7-|--7--7--7--0--0--0--0--0--|
G|--8--8--8--8--8--8--8--8-8-|--8--8--8--8--8--8--8--8--|
D|--9--9--9--9--9--9--9--9-9-|--9--9--9--9--9--9--9--9--|
A|--9--9--9--9--9--9--9--9-9-|--9--9--9--9--9--9--9--9--|
E|--7--7--7--7--7--7--7--7-7-|--7--7--7--7--7--7--7--7--|
    |  |  |  |  |  |  |  | ˄    |  |  |  |  |  |  |  |
    ▼  ˅  ▼  ˅  ˅  ˅  ▼  ˅ |    ▼  ˅  ▼  ˅  ˅  ˅  ˅  ˅

    B                           B        Badd4    
e|--7--7--7--7--7--7--7--7-7-|--7--7--7--0--0--0--0--0--|
B|--7--7--7--7--7--7--7--7-7-|--7--7--7--0--0--0--0--0--|
G|--8--8--8--8--8--8--8--8-8-|--8--8--8--8--8--8--8--8--|
D|--9--9--9--9--9--9--9--9-9-|--9--9--9--9--9--9--9--9--|
A|--9--9--9--9--9--9--9--9-9-|--9--9--9--9--9--9--9--9--|
E|--7--7--7--7--7--7--7--7-7-|--7--7--7--7--7--7--7--7--|
    |  |  |  |  |  |  |  | ˄    |  |  |  |  |  |  |  |
    ▼  ˅  ▼  ˅  ˅  ˅  ▼  ˅ |    ▼  ˅  ▼  ˅  ˅  ˅  ˅  ˅

    F#add11                     F#add11
e|---------------------------|---------------------------|
B|--0--0--0--0--0--0--0--0-0-|--0--0--0--0--0--0--0--0-0-|
G|--3--3--3--3--3--3--3--3-3-|--3--3--3--3--3--3--3--3-3-|
D|--4--4--4--4--4--4--4--4-4-|--4--4--4--4--4--4--4--4-4-|
A|--4--4--4--4--4--4--4--4-4-|--4--4--4--4--4--4--4--4-4-|
E|--2--2--2--2--2--2--2--2-2-|--2--2--2--2--2--2--2--2-2-|
    |  |  |  |  |  |  |  | ˄    |  |  |  |  |  |  |  | ˄
    ▼  ˅  ▼  ˅  ˅  ˅  ▼  ˅ |    ▼  ˅  ▼  ˅  ˅  ˅  ▼  ˅ |

    E                           E 
e|--0--0--0--0--0--0--0--0-0-|--0--0--0--0--0--0--0--0-0-|
B|--0--0--0--0--0--0--0--0-0-|--0--0--0--0--0--0--0--0-0-|
G|--1--1--1--1--1--1--1--1-1-|--1--1--1--1--1--1--1--1-1-|
D|--2--2--2--2--2--2--2--2-2-|--2--2--2--2--2--2--2--2-2-|
A|--2--2--2--2--2--2--2--2-2-|--2--2--2--2--2--2--2--2-2-|
E|--0--0--0--0--0--0--0--0-0-|--0--0--0--0--0--0--0--0-0-|
    |  |  |  |  |  |  |  | ˄    |  |  |  |  |  |  |  | ˄
    ▼  ˅  ▼  ˅  ˅  ˅  ▼  ˅ |    ▼  ˅  ▼  ˅  ˅  ˅  ▼  ˅ |

    B                           B        Badd4    
e|--7--7--7--7--7--7--7--7-7-|--7--7--7--0--0--0--0--0--|
B|--7--7--7--7--7--7--7--7-7-|--7--7--7--0--0--0--0--0--|
G|--8--8--8--8--8--8--8--8-8-|--8--8--8--8--8--8--8--8--|
D|--9--9--9--9--9--9--9--9-9-|--9--9--9--9--9--9--9--9--|
A|--9--9--9--9--9--9--9--9-9-|--9--9--9--9--9--9--9--9--|
E|--7--7--7--7--7--7--7--7-7-|--7--7--7--7--7--7--7--7--|
    |  |  |  |  |  |  |  | ˄    |  |  |  |  |  |  |  |
    ▼  ˅  ▼  ˅  ˅  ˅  ▼  ˅ |    ▼  ˅  ▼  ˅  ˅  ˅  ˅  ˅



  Main riff used frequently throughout song (distorted electric): 
  

e|--7--7--7--7--7--7--7--7--|--7--7--7--7--7--7--7--7--|
B|--7--7--7--7--7--7--7--7--|--7--7--7--7--7--7--7--7--|
G|9b11-11-11-11-11-11-11-11-|-r9--9--9--9--9--9--9--9--|
D|--------------------------|--------------------------|
A|--------------------------|--------------------------|
E|--------------------------|--------------------------|


e|---11-11-11-11-11-11-11-11-|--11-11-11-11-11-11-11-11-|
B|---11-11-11-11-11-11-11-11-|--11-11-11-11-11-11-11-11-|
G|13b15-15-15-15-15-15-1

Only Superstition chords – Coldplay V3

 Coldplay - Only Superstition is a part of the Brothers &amp; Sisters EP by Coldplay, 
recorded and released in 1999 By Chris Martin, Will Champion, Guy Berryman and
Johnny Buckland.

No Capo, Standard Tuning - Enjoy!
Listen to the song itself for singing pitch and strumming patterns

Chords: Am, Em, F, G, Fmaj7

 so wish me (and you) luck!

Intro: F (strum softly and build up)

F, Em, G x4

Verse 1:
 Am F G 
The cardboard head I see
 Am F G 
Has found its way to me
 Am F G 
Its old and its old and its old
 Am F G 
Making me cry

 Am F G 
I sleep but I will not move
 Am F G 
I'm too scared to leave my room
 Am F G Am F G 
But I won't be defeated, oh no

Pre - Chorus
 F G F 
What if cards don't go my way
 F G F 
Then its sure to spoil my day
 F G F 
But in voices loud and clear
 F G 
You say to me 

Chorus:
                  F Em G 
Its Only Superstition
                     F Em G 
Its only your imagination
                       F Em 
Its only part of the things that you feel
         G F Em G 
And the things which you can not explain


Verse 2:
 Am F G 
Keep clean for the thousandth time
 Am F G 
Stand still and wait in line
 Am F G Am F G 
Some numbers are better than others ohhh...


Pre - Chorus
 F G F 
What if cards don't go my way
 F G F 
Then its sure to spoil my day
 F G F 
But in voices loud and clear
 F G 
You say to me


Chorus:               
                  F Em G 
Its Only Superstition
                     F Em G 
Its only your imagination
                       F Em 
Its only part of the things that you feel
         G F Em G 
And the things which you can not explain


Bridge:
 F G 
And its making me cry
 F G 
And its making me cry love
 F G 
And i'm slipping away now
 Fmaj7 Fmaj7   
Yea i'm slipping awa...ay


Outro: (quiet and methodic)
 Fmaj7 G Fmaj7 G 
Its Only Superstition, only your imagination
 Fmaj7 G Fmaj7 
Its Only Superstition, Only Superstition



(Strum final chord once and hold till it fades out)
Please send any feedback, its much appreciated










Trouble Acoustic Tabs by Coldplay V3

 Trouble by Coldplay (MTV solo acoustic performance by Chris Martin)
Note the changes in the syncopated rhythmic strums in the performance:

 AG February 5, 2014
EADGBd tuning (1st treble string dropped from e to d)

Verse 1
d |--0--0--0-----|--0--0--0-----|--0--0--0-----|--0--0--|--0--0--0--0--|--0--0--0-----|
B |--0--7--7-----|--0--7--7-----|--0--7--7-----|--1--1--|--0--7--7--7--|--1--1--0-----|
G |--4--0--7-----|--4--0--7-----|--4--0--7-----|--2--2--|--4--0--7--6--|--2--2--4-----|
D |--5--5--9-----|--5--5--9-----|--5--5--9-----|--3--2--|--5--5--9--9--|--3--2--5-----|
A |--5--7--9-----|--5--7--9-----|--5--7--9-----|--3--0--|--5--7--9--9--|--3--0--5-----|
E |--3--0--7-----|--3--0--7-----|--3--0--7-----|--1--x--|--3--0--7--7--|--1--x--3-----|

Verse 2
d |--0--0--0--0--|--0--0--0--0--|--0--0--0--0--|--0--0--|--0--0--0--0--|--0--0--0-----|
B |--0--7--7--7--|--0--7--7--7--|--0--7--7--7--|--1--1--|--0--7--7--7--|--1--1--0-----|
G |--4--0--7--6--|--4--0--7--6--|--4--0--7--6--|--2--2--|--4--0--7--6--|--2--2--4-----|
D |--5--5--9--9--|--5--5--9--9--|--5--5--9--9--|--3--2--|--5--5--9--9--|--3--2--5-----|
A |--5--7--9--9--|--5--7--9--9--|--5--7--9--9--|--3--0--|--5--7--9--9--|--3--0--5-----|
E |--3--0--7--7--|--3--0--7--7--|--3--0--7--7--|--1--x--|--3--0--7--7--|--1--x--3-----|

Chorus
d |--0-----0-----|--0-----0-----|--0-----0-----|--0-----0-----|
B |--0-----0-----|--0-----0-----|--0-----0-----|--0-----0-----|
G |--6-----0-----|--6-----0-----|--6-----0-----|--2-----0-----|
D |--7-----2-----|--7-----2-----|--7-----2-----|--2-----2-----|
A |--7-----2-----|--7-----2-----|--7-----2-----|--2-----2-----|
E |--5-----0-----|--5-----0-----|--5-----0-----|--x-----0-----|

Verse 3
d |--0--0--0--0--|--0--0--0-----|--0--0--0--0--|--0--0--|--0--0--0--0--|--0--0--0-----|
B |--0--7--7--7--|--0--7--7-----|--0--7--7--7--|--1--1--|--0--7--7--7--|--1--1--0-----|
G |--4--0--7--6--|--4--0--7-----|--4--0--7--6--|--2--2--|--4--0--7--6--|--2--2--4-----|
D |--5--5--9--9--|--5--5--9-----|--5--5--9--9--|--3--2--|--5--5--9--9--|--3--2--5-----|
A |--5--7--9--9--|--5--7--9-----|--5--7--9--9--|--3--0--|--5--7--9--9--|--3--0--5-----|
E |--3--0--7--7--|--3--0--7-----|--3--0--7--7--|--1--x--|--3--0--7--7--|--1--x--3-----|

Chorus
d |--0-----0-----|--0-----0-----|--0-----0-----|--0-----0-----|
B |--0-----0-----|--0-----0-----|--0-----0-----|--0-----0-----|
G |--6-----0-----|--6-----0-----|--6-----0-----|--2-----0-----|
D |--7-----2-----|--7-----2-----|--7-----2-----|--2-----2-----|
A |--7-----2-----|--7-----2-----|--7-----2-----|--2-----2-----|
E |--5-----0-----|--5-----0-----|--5-----0-----|--x-----0-----|
 
Interlude (see note below)
d |--0--0--0--0--|--0--0--0--0--|--0--0--0--0--|--0--0--0--0--|
B |--8--8--10-10-|--8--8--10-10-|--8--8--10-10-|--8--8--7--7--|
G |--0--0--7--0--|--0--0--7--0--|--0--0--7--0--|--0--0--7--6--|
D |--9--9--0--11-|--9--9--0--11-|--9--9--0--11-|--9--9--9--9--|
A |--10-7--9--12-|--10-7--9--12-|--10-7--9--12-|--10-7--9--9--|
E |--10-0--7--12-|--10-0--7--12-|--10-0--7--12-|--10-0--7--7--|

Outro (3x)
d |--0--2--0--2--|
B |--0--2--0--2--|
G |--0--2--4--2--|
D |--2--4--5--4--|
A |--2--4--5--4--|
E |--0--2--3--2--|

Alternative interlude (easier fingering for 3rd chord)
d |--0--0--7--0--|--0--0--7--0--|--0--0--0--0--|--0--0--0--0--|
B |--8--8--7--10-|--8--8--7--10-|--8--8--7--10-|--8--8--7--7--|
G |--0--0--7--0--|--0--0--7--0--|--0--0--7--0--|--0--0--7--6--|
D |--9--9--9--11-|--9--9--9--11-|--9--9--9--11-|--9--9--9--9--|
A |--10-7--9--12-|--10-7--9--12-|--10-7--9--12-|--10-7--9--9--|
E |--10-0--7--12-|--10-0--7--12-|--10-0--7--12-|--10-0--7--7--|

 

Prospekts March chords – Coldplay V4

 I present to you a great sounding version of the first guitar song I learned

 Bm G 
Smoke is rising from the houses
 Bm7 G 
People burying their dead
 Bm G 
I ask somebody what the time is
 Bm7 G DM7 
But time doesn't matter to them yet
 G Bm DM7 
People talking without speaking
 G Bm 
Trying to take what they can get
 G Bm 
I ask you if you remember
 E7 Bm7 - G 
Prospekt, how could I forget?

 D6 - D F#m - Bm7 
Drums, here it comes
 G 
Don't you wish that life can be as simple
As fish swimming round in a barrel?
      E7              ( G )
When you've got the gun
 Gm6 D Bm7 
Oh when I run, here it comes
 G 
We're just two little figures in a soup bowl
Trying to get to any kind of control
     Em G6 
But I wasn't one

            A F#m GM7 
Now here I lie on my own in a separate sky
        A F#m GM7 
Here I lie on my own in a separate sky
               A F#m7 GM7 
I don't wanna die on my own here tonight
            A F#m GM7 D 
But here I lie on my own in a separate sky

 G/D

Clocks Acoustic Tabs by Coldplay

 Clocks – Coldplay (with capo on 1st fret)

Intro:  strumming x2
e-----------------------------------------------------------------|
B-3-----3-----3---1-----1-----1---1-----1-----1---0-----0-----0---|
G---2-----2-----2---2-----2-----2---2-----2-----2---0-----0-----0-|
D-----4-----4---------2-----2---------2-----2---------2-----2-----|
A-----------------------------------------------------------------|
E-----------------------------------------------------------------|

D Am Am G D Am Am G

        D                Am
The lights go out and I can't be saved
Am                    G
Tides that I tried to swim against
     D                Am
Have brought me down upon my knees
Am          G
Oh I beg, I beg and plead, singing.

D               Am
Come out of the things unsaid
Am             G
Shoot an apple off my head and a
D             Am
Trouble that can't be named
Am             G
Tigers waiting to be tamed, singing

D Am G  D Am G
You are, you are

repeat the chords D Am Am G

Confusion that never stops
The closing walls and the ticking clocks gonna
Come back and take you home
I could not stop, that you now know, singing

Come out upon my seas
Cursed missed opportunities am I
A part of the cure
Or am I part of the disease, singing

You are, you are
You are, you are
You are, you are

F               C      G
And nothing else compares
F               C      G
And nothing else compares
F               C      G  F
And nothing else compares

e-----------------------------------------------------------------|
B-3-----3-----3---1-----1-----1---1-----1-----1---0-----0-----0---|
G---2-----2-----2---2-----2-----2---2-----2-----2---0-----0-----0-|
D-----4-----4---------2-----2---------2-----2---------2-----2-----|
A-----------------------------------------------------------------|
E-----------------------------------------------------------------|
x2

e-3-2---3--2---3-2-3-2---3-2---3-2-3-2---3-2---3-2-3-2---3-2---3-2-|
B-----3------3---------1-----1---------1-----1---------0-----0-----|
G------------------------------------------------------------------|
D------------------------------------------------------------------|
A------------------------------------------------------------------|
E------------------------------------------------------------------|
Home,            home,      where I   wanted   to    go

e-3-2---3--2---3-2-3-2---3-2---3-2-3-2---3-2---3-2-3-2---3-2---3-2-|
B-----3------3---------1-----1---------1-----1---------0-----0-----|
G------------------------------------------------------------------|
D------------------------------------------------------------------|
A------------------------------------------------------------------|
E------------------------------------------------------------------|
Home,            home,      where I   wanted   to    go

e-3-2---3--2---3-2-3-2---3-2---3-2-3-2---3-2---3-2-3-2---3-2---3-2-|
B-----3------3---------1-----1---------1-----1---------0-----0-----|
G------------------------------------------------------------------|
D------------------------------------------------------------------|
A------------------------------------------------------------------|
E------------------------------------------------------------------|
Home,            home,      where I   wanted   to    go

e-3-2---3--2---3-2-3-2---3-2---3-2-3-2---3-2---3-2-3-2---3-2---3-2-|
B-----3------3---------1-----1---------1-----1---------0-----0-----|
G------------------------------------------------------------------|
D------------------------------------------------------------------|
A------------------------------------------------------------------|
E------------------------------------------------------------------|
Home,            home,      where I   wanted   to    go

Viva La Vida Live Tabs by Coldplay

 These are the solo's that Jonny Buckland plays live during the whole song.

Listen carefully for the strumming. I tried to tab it good enough, but you have to 
listen to the song when you play it.


Interlude 1:(after first verse) (not played by Jonny Buckland, but you can play it)

e|16------------15|----------------|16------------15|----------------|
B|----------------|----------------|----------------|----------------|
G|----------------|----------------|----------------|----------------| x2
D|----------------|----------------|----------------|----------------|
A|----------------|----------------|----------------|----------------|
E|----------------|----------------|----------------|----------------|


Interlude 2: (after first chorus) (pluck the strings with your fingers)

e|----------------|----------------|----------------|----------------|
B|--14--14--14--14|--14--14--14--14|--13--13--13--13|--13--13--13--13|
G|--13--13--13--13|--13--13--13--13|--13--13--13--13|--13--13--13--13| x2
D|11--11--11--11--|11--11--11--11--|----------------|----------------|
A|----------------|----------------|11--11--11--11--|11--11--11--11--|
E|----------------|----------------|----------------|----------------|


Prechorus 2: (Revolutionairies wait) (pluck the strings again)

e|----------------|----------------|----------------|----------------|
B|--14--14--14--14|--14--14--14--14|--13--13--13--13|--13--13--13--13|
G|--13--13--13--13|--13--13--13--13|--13--13--13--13|--13--13--13--13| x2
D|11--11--11--11--|11--11--11--11--|----------------|----------------|
A|----------------|----------------|11--11--11--11--|11--11--11--11--|
E|----------------|----------------|----------------|----------------|


Chorus 2: (Use a pick now) (Listen carefully to hear the strumming)

e|-----------------|-----------------|-----------------|-----------------|
B|14-14-14-14-14-14|--14--14--14--14-|13-13-13-13-13-13|--13--13--13--13-|
G|13-13-13-13-13-13|--13--13--13--13-|13-13-13-13-13-13|--13--13--13--13-| x3
D|11-11-11-11-11-13|--13--13--13--13-|13-13-13-13-13-15|--15--15--15--15-|
A|-----------------|-----------------|11-11-11-11-11-15|--15--15--15--15-|
E|-----------------|-----------------|-----------------|-----------------|

e|-----------------|---------13-11---|-----------------|-----------------|
B|14-14-14-14-14-14|---------------14|13-------------13|-----------------|
G|13-13-13-13-13-13|-----------------|13-------13----13|-----------------|
D|11-11-11-11-11-13|-----------------|13-------------15|-----------------|
A|-----------------|-----------------|11-------------15|-----------------|
E|-----------------|-----------------|-----------------|-----------------|


Interlude 3:

e|----------------|----------------|    e|----------------|----------------| 
B|9--9--9--9----9-|9--9--9--9--9---|    B|11-11-11-11-11--|11-11-11-11-11--|
G|10-10-10-10---10|10-10-10-10-10--| x3 G|12-12-12-12-12--|12-12-12-12-12--|
D|11-11-11-11---10|10-10-10-10-10--|    D|13-13-13-13-13--|13-13-13-13-13--|
A|11-11-11-11---8-|8--8--8--8--8---|    A|13-13-13-13-13--|13-13-13-13-13--|
E|----------------|----------------|    E|----------------|----------------|

e|-----------------|-----------------|-----------------|-----------------|
B|14-14-14-14-14-14|--14--14--14--14-|13-13-13-13-13-13|--13--13--13--13-|
G|13-13-13-13-13-13|--13--13--13--13-|13-13-13-13-13-13|--13--13--13--13-| x2
D|11-11-11-11-11-13|--13--13--13--13-|13-13-13-13-13-15|--15--15--15--15-|
A|-----------------|-----------------|11-11-11-11-11-15|--15--15--15--15-|
E|-----------------|-----------------|-----------------|-----------------|


Chorus 3:

e|-----------------|-----------------|-----------------|-----------------|
B|14-14-14-14-14-14|--14--14--14--14-|13-13-13-13-13-13|--13--13--13--13-|
G|13-13-13-13-13-13|--13--13--13--13-|13-13-13-13-13-13|--13--13--13--13-| x3
D|11-11-11-11-11-13|--13--13--13--13-|13-13-13-13-13-15|

We Never Change Tabs by Coldplay

 Coldplay - We Never Change (Parachutes)

My favourite Coldplay song ever.

!- Tune high e string down to C# -!

--- Chords: ---
                                            
F#madd11: E [--2--]    E6: E [--0--]    Bmadd9: E [--7--]
          A [--4--]        A [--2--]            A [--9--]
          D [--4--]        D [--2--]            D [--9--]
          G [--2--]        G [--1--]            G [--7--]
          B [--0--]        B [--0--]            B [--0--]
          C#[--0--]        C#[--0--]            C#[--0--]

   Aadd9: E [--5--]  C#m7: E [--9--]       Bm9: E [--7--]
          A [--7--]        A [--11--]           A [--x--]
          D [--7--]        D [--11--]           D [--7--]
          G [--6--]        G [--9--]            G [--7--]
          B [--0--]        B [--0--]            B [--0--]
          C#[--0--]        C#[--0--]            C#[--0--]

  B7sus2: E [--7--]   F#m: E [--2--]   Bmadd9*: E [--7--]
          A [--x--]        A [--4--]            A [--x--]
          D [--7--]        D [--4--]            D [--9--]
          G [--6--]        G [--2--]            G [--7--]
          B [--0--]        B [--2--]            B [--7--]
          C#[--0--]        C#[--0--]            C#[--0--]

   Dmaj7: E [--10--]                     Badd9: E [--7--]
          A [--12--]                            A [--9--]
          D [--12--]                            D [--9--]
          G [--11--]                            G [--8--]
          B [--10--]                            B [--7--]
          C#[--10--]                            C#[--0--]


-- Intro --

F#madd11 | F#madd11 | E6 | E6 | (x2)


--- Verse ---

        F#madd11              E6
I wanna live life and never be cruel,

        F#madd11                E6
I wanna live life and be good to you,

      Bmadd9 F#madd11           E6
And I wanna  fly and never come down,

    Bmadd9  F#madd11               E6      Aadd9
And live my life and have friends around


--- Chorus ---

C#[----------------------------------------------]  \
B [------------9b------9---------17----16--------]  |
G [------9-11-----------------------13----13-----]  |  x2
D [--11------------------------------------------]  |
A [----------------------------------------------]  |
E [----------------------------------------------]  /

                    C#m7          Aadd9
We never change, do we? No, no,

                   C#m7
We never learn, do we?

   Bmadd9  F#madd11          E6
So I wanna live in a wooden house

--- Verse 2 ---

      F#madd11                 E6
I wanna live life and always be true,

        F#madd11                E6
I wanna live life and be good to you,

Bmadd9 F#madd11             E6
I wanna  fly and never come down,

    Bmadd9  F#madd11               E6      Aadd9
And live my life and have friends around


--- Chorus ---

C#[----------------------------------------------]  \
B [------------9b------9---------17----16--------]  |
G [------9-11-----------------------13----13-----]  |  x2
D [--11------------------------------------------]  |
A [----------------------------------------------]  |
E [----------------------------------------------]  /

                    C#m7          Aadd9
We never change, do we? No, no,

                   C#m7
We never learn, do we?

   Bmadd9  F#madd11          E6
So I wanna live in a wooden house

    Bmadd9      F#madd11               E6
And making more friends would be easy


--- Bridge ---

Bm9  B7sus2       Bm9         B7sus2  E6     Bm9
        Oh and I don't have a soul to save,

 B7sus2     Bm9       B7sus2      E6    Bmadd9
  Yes and I sin every single day

F#madd11            E6   Bmadd9
We never change, do we?

F#madd11           E6
We never learn, do we?


--- Outro ---

   Bmadd9  F#m       E6     Bmadd9*
So I wanna live in a wooden house,

                  F#m             Dmaj7  Badd9
Where makin

Christmas Lights chords – Coldplay V6

 Chords used:
 G/D :   xx0003
 G :     320003
 G/E :   xx2433
 D/F# :  2x023x
 Csus2 : x35533
 D :     xx0232
 G/C :   x3x003
 D6 :    xx02x2
 D5 :    x577xx
 Dsus4 : xx0233
 Em :    022000
 C :     x32010
 Cadd9 : x32033
 Em7 :   022030
 Csus2 (#11): x34533
 G6 :    320000
Dadd4: x5403x
 Gmaj7/F# : x20002
 G/B :   x2003x
 C6/9 :  x32233
 D7sus4 :xx0213
 C6 :    x32210
 Em6 :   022020
 Gadd9 : 320233
 C/D :   xx0010
 C6/9 :  x32233
 D7/A :  xx0323


Intro:

 G/D G G/E D/F# G Csus2 D G                        
Christmas night, another fight
                    G/E D/F# 
Tears we cried a flood
 G 
Got all kinds of poison in
 G Csus2 D 
Poison in my blood

 G 
I took my feet to Oxford Street,
                    G/E D/F# 
Tryin' to right a wrong
       G 
Just walk away those windows say
                            Csus2 D 
But I can't believe she's gone

       G/C  
When you're still waiting for the snow to fall
                          D6 D5 Dsus4 
Doesn't really feel like Christmas at all


 G G/E D/F# G Csus2 D Em            
Up above candles on air flicker
            C Cadd9 
Oh they flicker and they float
           G 
But I'm up here holding on
                 D6 D 
To all those chandeliers of hope

           Em Em7 
Like some drunken Elvis singing
       Csus2 (#11)       Cadd9  
I go singing out of tune
            G6 
Saying how I always loved you darling
  Dadd4           D 
And I always will

               G/C 
Oh when you're still waiting for the snow to fall
                          D6 D5 Dsus4 
Doesn't really feel like Christmas at all
 G/C 
Still waiting for the snow to fall
                          D6 D5 Dsus4 
Doesn't really feel like Christmas at all


 G Gmaj7/F# Em7 G/B G/C C6/9 D7sus4 G 
Those Christmas lights
               
Light up the street
                C Cadd9 G 
Down where the sea and city meet
              C Em7 
May all your troubles soon be gone
              G D7sus4 G    
Oh Christmas lights keep shining on

 D7sus4 G 
Those Christmas lights

Light up the street
               C Cadd9 G 
Maybe they'll bring her back to me
             C Em7 
Then all my troubles will be gone
              G D7sus4 G    
Oh Christmas lights keep shining on


 D G C/G G C6 G Em6 G D7 Gadd9 G/D C/D G             
Oh Christmas lights 
          C/G G/B 
Light up the street
              C</spa

Fix You chords – Coldplay V12

 Hi. I'm Jonas. I know this is not 100% accurate, it's for those who have not yet 
perfected their guitarplay and wish to play this song fairly correctly. Enjoy.


            [ C ]                   [ Em ]       [ Am ]           [ G ]
   When you try your best but you don't succeed
            [ C ]                   [ Em ]          [ Am ]           [ G ]
   When you get what you want but not what you need
            [ C ]              [ Em ]         [ Am ]           [ G ]
   When you feel so tired but you can't sleep
          [ C ][ Em ][ Am ] [ G ]
   Stuck in reve--e--erse

            [ C ]                   [ Em ]       [ Am ]           [ G ]
   When the tears come streaming down your face
         [ C ]                [ Em ]       [ Am ]           [ G ]
   When you lose something you can't replace
         [ C ]                [ Em ]       [ Am ]           [ G ]
   When you love someone but it goes to waste
            [ C ][ Em ][ Am ]  [ G ]
   Could it be wo--o--orse?

[ G ]             [ D ]  [ A ]                         
   Lights will gu--u--uide you home
[ G ]      [ D ]   [ A ]       
   And igni--i--ite your bones
[ G ]       [ D ][ A ]       
   I will try--y to fix you

        [ C ]         [ Em ]         [ Am ]         [ G ]
        [ C ]         [ Em ]         [ Am ]         [ G ]

   [ C ]              [ Em ]    [ Am ]        [ G ]
   High up above or down below
            [ C ]              [ Em ]    [ Am ]       [ G ]
   When you're too in love to let it go
             [ C ]            [ Em ]       [ Am ]         [ G ]
   But if you never try you'll never know
                   [ C ][ Em ][ Am ]   [ G ]
   Just what you're wo--o--orth

[ G ]             [ D ]  [ A ]                         
   Lights will gu--u--uide you home
[ G ]      [ D ]   [ A ]       
   And igni--i--ite your bones
[ G ]       [ D ][ A ]       
   I will try--y to fix you

   [ D ][ D ][ G ][ G ][ D ][ D ][ A ][ A ]
   [ D ][ D ][ G ][ G ][ D ][ D ][ A ][ A ]

[ D ]           [ G ]                [ D ]
   Tears stream down your face
                           [ A ]               [ D ]
   When you lose something you cannot replace
               [ G ]
   Tears stream down your face
     [ D ]         [ A ]
   And I--I--I--I

   [ D ]           [ G ]                [ D ]
   Tears stream down your face
                         [ A ]                 [ D ]
   I promise you I will learn from my mistakes
              [ G ]           
   Tears stream down your face
     [ D ]         [ A ]
   And I--I--I--I

Atlas solo Tabs by Coldplay V2

 I tabbed this from http://www.youtube.com/watch?v=t6xpGRGVuCk
He does it right I think.
It's my first tab btw :)

Correct version:
e|-16-16-16-16-16-14-----------------------|
B|-------------------17-16-12/14-17-16-17\-|
G|-----------------------------------------|
D|-----------------------------------------|
A|-----------------------------------------|
E|-----------------------------------------|

e|-16-16-16-16-16-18-14-16-----------------|
B|-------------------------12/14-17-16-17\-|
G|-----------------------------------------|
D|-----------------------------------------|
A|-----------------------------------------|
E|-----------------------------------------|

e|-16-16-16-16-16-14-----------------------|-------------------------------|
B|-------------------17-16-12/14-16-14-16--|-12p11-12p11-12-14-12p11-12-14-|
G|-----------------------------------------|-------------------------------|
D|-----------------------------------------|-------------------------------|
A|-----------------------------------------|-------------------------------|
E|-----------------------------------------|-------------------------------|

Last piece can be done this way too:
e|-------------------------|
B|-12p11-12-14-12p11-12-14-|
G|-------------------------|
D|-------------------------|
A|-------------------------|
E|-------------------------|

/  slide up
\  slide down
h  hammer on
p  pull of