Tag: computer

Warbringers – Jaina Daughter Of The Sea chords by Misc Computer Games

[Verse 1]
   Am               G              Am 
Beware, beware The Daughter of the Sea
 Am       G          Am 
Beware, I heard him cry
    Am     G                     Am 
His words carried upon the ocean breeze
       Em               Am 
As he sank beneath the tide

[Verse 2]
       Am           G             Am 
Those blood-soaked shores of Kalimdor
       Am     G           Am 
Where sailors fought and died
     Am      G           Am 
The admiral fell at Theremore
   Em                 Am 
Because she left his side.

[Chorus 1]
    G 
Why this? Why this?
    Am 
Oh, Daughter of the sea?
    G                                 Am 
Why this? Did you forget your seaside days?
  G              Am 
Always the pride of our nation's eyes.
    Em           Am 
How could she go astray?

[Verse 3]
     Am              G              Am 
When she did flee across the ocean deep
    Am       G        Am 
The admiral followed west
      Am 
What else but sail
    G                Am 
To save a daughter's life
     Em                  Am 
And pray she still drew breath?

[Verse 4]
     Am 
But there he found
  G                 Am 
Upon those distant shores
 Am       G       Am 
Enemies ´pon the rise!
     Am                 G      Am 
But when he faced thos savage foes
     Em              Am 
His daughter stood aside.

[Chorus 2]
    G            Am 
And buried deep beneath the waves.
   G             Am 
Betrayed by family.
        G      Am 
To his nation, with his last breath, cried
           Em              Am 
Beware the Daughter of the Sea.

[Verse 5]
  Am 
I heard, I heard
   G              Am 
Across a moonlit sea.
     Am 
The old voice warning me
 Am                 G              Am 
Beware, beware the Daughter of the sea
  Em              Am 
Beware, beware of me.

Free Realms Ost Briarheart Tabs – Misc Computer Games

 These are the three themes played throughout THIS OST, 
the themes should follow through the other 2 songs from the Briarwood area.

e|----------------------------------|
B|----------------------------------|
G|----------------------------------|
D|7---6---7---8---7-----------------|
A|-------------------8-7-5-7--------|
E|----------------------------------|

e|----------------------------------|
B|----------------------------------|
G|-------------------7--------------|
D|7---6---7---8---7-----------------|
A|---------------------8-7-5-----5--|
E|---------------------------8------|

e|----------------------------------|
B|----------------------------------|
G|7-----7------10-9-7--9-10-9---7---|
D|--8-----7-------------------------|
A|----------------------------------|
E|----------------------------------|

e|---------------------|  
B|---------------------|  
G|7-----------7--------|  
D|--10-9-9-10----7--6-7|   
A|---------------------|   
E|---------------------| 

e|---------------------|                         
B|---------------------|                     
G|---------------------|                   
D|---------------------|                   
A|5-7-8-8-7-5-7--------|
E|---------------------|

//Original tabbing - diingus
//Many thanks to YouTube user >Scott Cindershot< for ripping the OST and putting it up on YouTube
//His YouTube channel: https://www.youtube.com/user/ScottMoltendawn
//Thanks, Scotty-boy

Fallout 4 – Main Theme Tabs – Misc Computer Games Vsion 2

 -------------------------------------------------------------------------------
                             Fallout 4 - Main Theme
-------------------------------------------------------------------------------
: Dan Foy

Tuning: Standard


Intro
     main                                   background
e|---------------------------------------------------------------------------|
B|---------------------------------------------------------------------------|
G|------------------------------------------8-10-8---------------------------|
D|----------------------------5----------------------------------------------|
A|---3-6--7----3-6--7----3-6----5--3-5---------------------------------------|
E|---------------------------------------------------------------------------|


Chorus 1
     main              background     main            background              
e|----------------------------------------------------8--10------------------|
B|----------------8--------8----------------------8--------------------------|
G|---7--5---3--5--5----5-8---7-3-5----8--10---7-3-5--------------------------|
D|---------------------------------------------------------------------------|
A|---------------------------------------------------------------------------|
E|---------------------------------------------------------------------------|
     main              background   main            background
e|---------------------8--6--8----------------------8------------------------|
B|----------------8-----------------------------8----------------------------|
G|---8--7--5-3-5--5-----------------8--7--5-3-5-5----------------------------|
D|---------------------------------------------------------------------------|
A|---------------------------------------------------------------------------|
E|---------------------------------------------------------------------------|


Modified intro
     main                                 main/background
e|---------------------------------------------------------------------------|
B|----------------------------------------6----------------------------------|
G|---------------------------------------------------------------------------|
D|------------------4---------------------3----------------------------------|
A|---3--6--7--6--3---------3--6--7--6--3-------------------------------------|
E|---------------------------------------------------------------------------|


Bridge
     main
e|----------------------------------6--7--9--9-------------------------------|
B|-----------------------6--8--9-9-------------------------------------------|
G|---5--8--9----5--8--9------------------------------------------------------|
D|---------------------------------------------------------------------------|
A|---------------------------------------------------------------------------|
E|---------------------------------------------------------------------------|


High chorus/swell
     main                 background      main/background
e|---11--12--11--9----9-----------------------------------6--9--9------------|
B|-----------------12-----------------------7-----------9-7--7--9------------|
G|------------------------9-8-9--6---6----9---8---6-6-6-6--------------------|
D|---------------------------------9-7----------9-8-6-8----------------------|
A|---------------------------------------------------------------------------|
E|---------------------------------------------------------------------------|


Outro
    main
e|---------------------------------------------------------------------------|
B|---------------------------------------------------------------------------|
G|-----------------------------6---------------------------------------------|
D|--------------------------7--6---------------------------------------------|
A|---4--7--8---4--7---7--9-----4---------------------------------------------|
E|--------------------5--5---------------------------------------------------|




I waited years f

Polybridge – Track 3 intro Tabs – Misc Computer Games

 -------------------------------------------------------------------------------
                          Track 3 - Polybridge Soundtrack
-------------------------------------------------------------------------------
: Elliot Kempson
 elliotk25

Tuning:EADGBe

e|---------------------------------------------------------------------------|
B|---------------------------12---12h14-------------14-----------------------|
G|--------------9---13---11----------------------13-14---14--13--------------|
D|--------------9--------13-------------14----------14-----------------------|
A|---------9h11----------14-------------14--16-------------------------------|
E|-12--12--------------------------------------------------------------------|


NOTE: I do not own Polybridge or the song, I'm just a fan :)
I don't own the video either, but here it is: https://youtu.be/f4-pitkxPLw
************************************

| /   slide up
| \   slide down
| h   hammer-on
| p   pull-off
| ~   vibrato
| +   harmonic
| x   Mute note
| b   Bend
| pb  Pre-bend
| br  Bend release
| pbr Pre-bend release
| brb Bend release bend

************************************

Final Fantasy Vii – Victory Fanfare Tabs – Misc Computer Games

 -------------------------------------------------------------------------------
                             SONG NAME Victory Fanfare- Band Name FFVII
-------------------------------------------------------------------------------
:Oli :3
 x.oadversity

Tuning: half step down
                  
eb|5-9-5---5--5-9-5---57975--6-9-6-6-6-9-6--67976-----------------------------|
Bb|------7----------7------7------7-------7------7----------------------------|
Gb|---------------------------------------------------------------------------|
Db|---------------------------------------------------------------------------|
Ab|---------------------------------------------------------------------------|
Eb|---------------------------------------------------------------------------|

eb|5-9-5-5-5-9-5-57975--5-9-5--5-5-9-5--57975---------------------------------|
Bb|-----7-------7------7------6-------6-------6-------------------------------|
Gb|---------------------------------------------------------------------------|
Db|---------------------------------------------------------------------------|
Ab|---------------------------------------------------------------------------|
Eb|---------------------------------------------------------------------------|

eb|5-9-5-5-5-9-5-57975-6-9-6-6-6-9-6-67976------------------------------------|
Bb|-----7-------7-----7-----7-------7-----7-----------------------------------|
Gb|---------------------------------------------------------------------------|
Db|---------------------------------------------------------------------------|
Ab|---------------------------------------------------------------------------|
Eb|---------------------------------------------------------------------------|

eb|7-10-7-7-7-10-7-791097-(x2)-7-11-7-7-7-11-7-791197-------------------------|
Bb|------8--------8------8-----------9--------9------9------------------------|
Gb|---------------------------------------------------------------------------|
Db|---------------------------------------------------------------------------|
Ab|---------------------------------------------------------------------------|
Eb|---------------------------------------------------------------------------|




************************************

| /   slide up
| \   slide down
| h   hammer-on
| p   pull-off
| ~   vibrato
| +   harmonic
| x   Mute note
| b   Bend
| pb  Pre-bend
| br  Bend release
| pbr Pre-bend release
| brb Bend release bend

************************************

Pokemon – Lavender Town intro Tabs – Misc Computer Games

 -------------------------------------------------------------------------------
                             Lavender Town Theme
-------------------------------------------------------------------------------
: AnonymousPi

Tuning: Standard

e|----3--7--2-----3--7--2-----3--7--2-----3--7--2--3--3--2--2--3--2--0--7----|
B|-1-----------1-----------1-----------1-----------------------------------2-|
G|---------------------------------------------------------------------------|
D|---------------------------------------------------------------------------|
A|---------------------------------------------------------------------------|
E|---------------------------------------------------------------------------|

e|----3--3--2--2--7--3--2--7--8--8-------------------------------------------|
B|-2-------------------------------------------------------------------------|
G|---------------------------------------------------------------------------|
D|---------------------------------------------------------------------------|
A|---------------------------------------------------------------------------|
E|---------------------------------------------------------------------------|

Super Mario Bros 3 – Grass Land Tabs – Misc Computer Games V2

 This is the overworld theme of world 1 in Super Mario Bros 3. Play along with youtube
to get a feel for it


E|-------------------------------------------------------------------------------
B|--8-----8--10--8--10--12--10--12--10-----12--10--8-----8--10--8--10--12--------
G|-----9----------------------------------------------9--------------------------
D|-------------------------------------------------------------------------------
A|-------------------------------------------------------------------------------
E|-------------------------------------------------------------------------------


E|---------------------------------------------------------------------------------------
B|--13--10--13--15--13--15--17--15--17--15-----17--15--13--10--13--15--13--15--17--------
G|---------------------------------------------------------------------------------------
D|---------------------------------------------------------------------------------------
A|---------------------------------------------------------------------------------------
E|---------------------------------------------------------------------------------------


E|-----------------------------------------------------------------
B|--8-----8--10--10--12--10--12--10-----12--10--13--13-----13--13--
G|-----9-----------------------------------------------------------
D|-----------------------------------------------------------------
A|-----------------------------------------------------------------
E|-----------------------------------------------------------------

Life Is Strange – End Credits Max And Chloe Tabs – Misc Computer Games

 -------------------------------------------------------------------------------
                        Jonathan Morali - End Credits (Life Is Strange)
-------------------------------------------------------------------------------
: Marta Mayer

After releasing my set of covers on YouTube (https://www.youtube.com/watch?v=waY8jaL-3Es), many 
people asked for tutorials or tabs for particular songs. So here you are, here is the wonderful 
music that can be heard in the end of the game! This tab is obviously not for the melodic line, 
but for the accompanying guitar (in my vid it's the upper screen). I warn you, it's not 
the easiest song. I tried to tab it in the simpliest way possible, but please - do read 
carefully, before giving up :)

Tip: The best fingers positions for the first two chords are like this:
pinkie finger: A string, 5th fret 
ring finger: D string, 4th fret
index finger: G string, 2nd fret
middle finger: B string, 3rd fret

Tuning: Standard

Position 1 (0:00 - 0:20)

e|------------------------------------------------------------------------------------------------------|
B|----------------3----------------------3-------------------------3-------------------------3----------|
G|-------------------2------2-----2----------2-----------2-----2-------2------------2-----2-------2-----|
D|------4------4---------------------4-----------4--------------------------4-------------------------4-|
A|--5------5------------5-------5--------------------5------5--------------------5------5---------------|
E|------------------------------------------------------------------------------------------------------|

Now, here comes the first change.
Position 2 (0:20 - 0:24)
Tip: The position is very similar to the first one. All you have to do, is to move your index finger to 
the E string, 3rd fret.

e|----------------------------------------------------------------------------|
B|---------------3-----------------------3------------------------------------|
G|-----0-------------0----------0--------------0------------------------------|
D|-----------4-----------4------------4---------------4-----------------------|
A|----------------------------------------------------------------------------|
E|--3-----3------------------3----3-------------------------------------------|

And then go back to position 1. 

Here comes the 3rd position (basically the Em chord)(in the song it's on 1:01)

e|------------------0---------------------------------------------------------|
B|----------------------0-----------------------------------------------------|
G|----------0---------------0-------------------------------------------------|
D|------2-------2---------------2---------------------------------------------|
A|----------------------------------------------------------------------------|
E|---0------------------------------------------------------------------------|

And right after is the 4th position (it's Bm barre chord) (1:03 approximately)

e|------------------------2---------------------------------------------------|
B|-----------------------------2----------------------------------------------|
G|---------3------------------------3-----------------------------------------|
D|-------------------4-------------------4------------------------------------|
A|----------------------------------------------------------------------------|
E|----2---------2-------------------------------------------------------------|

AND THEN SWITCH TO POSITION 1 AGAIN.


Now, I don't play this part in my video since I cut it out accidentally, but in case you want to continue 
with the song (and obviously you do), the chords are basically the same, until 2:13.

5th position (G chord, but the barre version) (it comes roughly on 2:14)

e|---------------------------------------------------------------------------------|
B|-----------------------3-------------------------------------------3-------------|
G|----------------------------4--------------

Batman Nes – Streets Of Desolation Stage 1 Tabs – Misc Computer Games

 #----------------------------------PLEASE NOTE---------------------------------#
#This file is the author's own work and represents their interpretation of the #
#song. You may only use this file for private study, scholarship, or research. #
#------------------------------------------------------------------------------##

Batman - theme for stage 1 for the NES



Gtr I (E A D G B E) - 'Melody'

  Gtr I
  W          W          W          W
|----------|----------|----------|------|
|----------|----------|----------|------|
|----------|----------|----------|------|
|----------|----------|----------|------|
|----------|----------|----------|------|
|----------|----------|----------|------|


  S S S  S  S S  S H    +S    +H     +S  E +S  E E
|---------------------------|----------------------|
|---------------------------|----------------------|
|---------------------------|----------------------|
|---------------------------|----------------------|
|-----9----10-9-------------|----------------------|
|---7---10------10-7----(7)-|-(7)----(7)-6-(6)-7-9-|


  E S H    +Q   +S    +H     +S  E +S  E E
|-------------------|-------------------------|
|-------------------|-------------------------|
|-------------------|-------------------------|
|-------------------|------------7-(7)-5------|
|-5-7-9----(9)--(9)-|-(9)----(9)---------9----|
|-------------------|-------------------------|


  E +S  E +S  H    +E    +H     +S  S S S S S S S
|----------------------|--------------------------|
|----------------------|--------------------------|
|----------------------|--------------------------|
|----------------------|------------------4-5-7-5-|
|-7-(7)----------------|------------3-5-7---------|
|-------8-(8)-3----(3)-|-(3)----(3)---------------|


  W          +E  Q  E +S  S S S S S S S
|----------|----------------------------|
|----------|----------------------------|
|----------|----------------------------|
|-4--------|-(4)-7--7-(7)-5-4---4-------|
|----------|------------------7---7-5-4-|
|----------|----------------------------|


  S S S  S  S S  S H    +S    +H     +S  E +S  E E
|---------------------------|----------------------|
|---------------------------|----------------------|
|---------------------------|----------------------|
|---------------------------|----------------------|
|-----9----10-9-------------|----------------------|
|---7---10------10-7----(7)-|-(7)----(7)-6-(6)-7-9-|


  E S H    +Q   +S    +H     +S  E +S  E E
|-------------------|------------------------|
|-------------------|------------------------|
|-------------------|------------------------|
|-------------------|------------7-(7)-5-----|
|-5-7-9----(9)--(9)-|-(9)----(9)---------9---|
|-------------------|------------------------|


  E +S  E +S  H    +E    +H     +S  S S S S S S S
|----------------------|--------------------------|
|----------------------|--------------------------|
|----------------------|--------------------------|
|----------------------|------------------4-5-7-5-|
|-7-(7)----------------|------------3-5-7---------|
|-------8-(8)-3----(3)-|-(3)----(3)---------------|


  W          +E  Q  E +S  S S S  S S S  S
|----------|------------------------------|
|----------|------------------------------|
|----------|------------------------------|
|-4--------|-(4)-7--7-(7)-----------------|
|----------|--------------9-7-9----7------|
|----------|--------------------10---9-10-|


  E +T  +X  X E +S  E E S E +S  E   E +S  E +S  E S E E +S  E
|---------------------------------|---------------------------|
|---------------------2-3-------3-|-2-(2)-3-(3)-5-----------2-|
|-------------------4-----4-(4)---|---------------2-2-4-(4)---|
|-------------4-(4)---------------|---------------------------|
|-2-(2)-(2)-----------------------|---------------------------|
|---------------------------------|---------------------------|


  S S S S S S S S S S S S S S S S   S S S S S S S S S S S S S S S S
|---------------------------------|---------2

Friday The 13Th Nes – Cabin Theme Tabs – Misc Computer Games

 
#----------------------------------PLEASE NOTE---------------------------------#
#This file is the author's own work and represents their interpretation of the #
#song. You may only use this file for private study, scholarship, or research. #
#------------------------------------------------------------------------------##



Friday the 13th - Cabin Theme from the NES


Gtr I (E A D G B E)

  Gtr I
   E E E  E E E   E E E E E E    E E E  E E E   E E E E E E
|---------------|-------------|---------------|--------------|
|---------------|-------------|---------------|--------------|
|-11---7-11---7-|-9---6-9---6-|-11---7-11---7-|-9---6-9---6--|
|----9------9---|---8-----8---|----9------9---|---8-----8----|
|---------------|-------------|---------------|--------------|
|---------------|-------------|---------------|--------------|


  E E E E E E   E E E E E E   E E E E E E   E E E E E E
|-------------|-------------|-------------|--------------|
|-------------|-------------|-------------|--------------|
|-9---6-9---6-|-8---5-8---5-|-8---5-8---5-|-6---3-6---3--|
|---7-----7---|---7-----7---|---6-----6---|---5-----5----|
|-------------|-------------|-------------|--------------|
|-------------|-------------|-------------|--------------|


   E E E  E E E   E E E E E E    E E E  E E E   E E E E E E
|---------------|-------------|---------------|--------------|
|---------------|-------------|---------------|--------------|
|-11---7-11---7-|-9---6-9---6-|-11---7-11---7-|-9---6-9---6--|
|----9------9---|---8-----8---|----9------9---|---8-----8----|
|---------------|-------------|---------------|--------------|
|---------------|-------------|---------------|--------------|


  E E E E E E   E E E E E E   E E E E E E   E E E E E E
|-------------|-------------|-------------|--------------|
|-------------|-------------|-------------|--------------|
|-9---6-9---6-|-8---5-8---5-|-8---5-8---5-|-6---5-6---5--|
|---7-----7---|---7-----7---|---6-----6---|---6-----6----|
|-------------|-------------|-------------|--------------|
|-------------|-------------|-------------|--------------|


  E E E E E E   E E E E E E   E E E E E E   E E E E E E
|-------------|-------------|-------------|--------------|
|-------------|-------------|-------------|--------------|
|-------------|-------------|-------------|--------------|
|-8-5-7-8-5-7-|-8-5-7-8-5-7-|-8-5-7-8-5-7-|-8-5-7-8-5-7--|
|-------------|-------------|-------------|--------------|
|-------------|-------------|-------------|--------------|


   E  E  E  E  E  E    E  E E E E  E   E E E E E E   E E E E E E
|-------------------|----------------|-------------|--------------|
|-------------------|----------------|-------------|--------------|
|-12-------10-------|-10------8------|-8-----7-----|-7-----5------|
|-------10----10-12-|-------8---8-10-|-----6---6-8-|-----6---5-6--|
|----11-------------|----10----------|---8---------|---6----------|
|-------------------|----------------|-------------|--------------|


   E  E  E  E  E  E    E  E E E E  E   E E E E E E   E E E E E E
|-------------------|----------------|-------------|--------------|
|-------------------|----------------|-------------|--------------|
|-12-------10-------|-10------8------|-8-----7-----|-7-----5------|
|-------10----10-12-|-------8---8-10-|-----6---6-8-|-----6---5-6--|
|----11-------------|----10----------|---8---------|---6----------|
|-------------------|----------------|-------------|--------------|


Assassins Creed 3 Theme solo Tabs – Misc Computer Games

 -------------------------------------------------------------------------------
               Assassin's Creed III Main Theme- Ubisoft
-------------------------------------------------------------------------------
:Andrei260902
al.trandafir

Tuning: E A D G B e

e|---------------------------------|
B|---------------------------------|
G|----3p2---0-2--------2p0----0----|
D|--0-----------0----0------3---2--|
A|---------------------------------|
E|---------------------------------|          X2

e|----------------------------------|
B|----------------------------------|
G|-----3-3-2-2------2-2-0-0---------|
D|-0-0----------0-0---------0-0-3-3-|
A|----------------------------------|
E|----------------------------------|  X2


e|---------------------------------|
B|---------------------------------|
G|----3p2---0-2--------2p0----0----|
D|--0-----------0----0------3---2--|
A|---------------------------------|
E|---------------------------------|          X2




************************************

| /   slide up
| \   slide down
| h   hammer-on
| p   pull-off
| ~   vibrato
| +   harmonic
| x   Mute note
| b   Bend
| pb  Pre-bend
| br  Bend release
| pbr Pre-bend release
| brb Bend release bend

************************************

Pokemon – Fire Red Theme Tabs by Misc Computer Games

 -------------------------------------------------------------------------------
                             Fire Red Title Screen- Gamefreak
-------------------------------------------------------------------------------
: Cruz.Cruz.71404
 Cruz.Clues

Tuning: Standard tuning


First tab, couldn't find any decent ones here so i decided to tab it myself

e|-----------------------------------------------------------------------------|
B|-----------------------------------------------------------------------------|
G|-----------------------------------------------------------------------------|
D|-----------------------------------------------------------------------------|
A|-0-0-7--0-0-8--0-0-7--0-0-4--0-0-7--0-0-11-12--10--0-0-7--0-0-8--0-0-7-------|
E|-----------------------------------------------------------------------------|

e|---------------------------------------------------------------------------------|
B|---------------------------------------------------------------------------------|
G|--------------------------14-----------------------------------------------------|
D|---------------------------------------------------------------------------------|
A|-0-0-4--0-0-7--0-0-11-12------14--14--14.14.14--14o--14o--11-12-11-12-11-12------|
E|---------------------------------------------------------------------------------|

e|-----------------------------------------------------------------------------|
B|-----------------------------------------------------------------------------|
G|----------9-9p8p7---------------------999999--11-14-11--11.11.11.11.11.11----|
D|----6-9-6---------9999-6-9-----6-9-6-----------------------------------------|
A|-7----------------------------7----------------------------------------------|
E|-----------------------------------------------------------------------------|

e|-----------------------------------------------------------------------------|
B|-----------------------------------------------------------------------------|
G|-14-11-9-989898--------------------------------------------------------------|
D|-----------------------------------------------------------------------------|
A|-----------------14--14--14.14.14--14o--14o----------------------------------|
E|-----------------------------------------------------------------------------|


************************************

| /   slide up
| \   slide down
| h   hammer-on
| p   pull-off
| ~   vibrato
| +   harmonic
| x   Mute note
| b   Bend
| pb  Pre-bend
| br  Bend release
| pbr Pre-bend release
| brb Bend release bend

************************************

Grand Prix 2 Theme – Geoff Crammond Tabs by Misc Computer Games

 -----------------------------------------------------------------------------
                     GRAND PRIX 2 THEME - Geoff Crammond
-----------------------------------------------------------------------------
: Matthew Needham
 matthew.needham@outlook.com

Tuning: Standard

This is the main theme song from Geoff Crammond's Grand Prix 2. It's a PC game made by 
MICROPROSE based on the 1994 Formula 1 season. Recently discovered the song again and 
have become obsessed with trying to work out how to play it! Hopefully I've done 
it justice! Cheers!

I should really have put GUITAR 1,2,3,4 etc. because you can't play all of this at the 
same time but you can record each part and put it together as I have done and it sounds MINT!

-(28/01/2014) I haven't worked it all out yet so I'll update it when I can! In the 
meantime, please suggest improvements to make it sound more like the actual song! :)

RIFF 1
For the first riff you can either play
             THIS                   OR                 THIS
e|--------------------------------|   |-------------------------------------|
B|--------------------------------|   |-------------------------------------|
G|-2--2--2-0--0--0-2--2--2-0--0--0|   |-------------------------------------|
D|-0--0--0-0--0--0-0--0--0-0--0--0| or|-7--7--7-5--5--5-7--7--7-5--5--5-----|
A|--------------------------------|   |-5--5--5-5--5--5-5--5--5-5--5--5-----|
E|--------------------------------|   |-------------------------------------|

This riff goes on for quite some time and the other parts are gradually layered.

RIFF 2

This riff is played from the start along with RIFF 1 and is only played alongside it. 
Try listening to the song to work out timings.
Depending on what you chose to play as RIFF 1, you can either play
D|--0-0-0-0--| OR A|--5-5-5-5--| but I'll tab it as open because I think it sounds better.

pm - - - - - - - - - - - - - - - - - - - - - - - - - - - - - - - - - - - - -
e|--------------------------------------------------------------------------|
B|--------------------------------------------------------------------------|
G|--------------------------------------------------------------------------|
D|-0-0-0-0-0-0-0-0-0-0-0-0-0-0-0-0-0-0-0-0-0-0-0-0-0-0-0-0-0-0-0-0-0-0-0-0-0|
A|--------------------------------------------------------------------------|
E|--------------------------------------------------------------------------|

RIFF 3
If you listen to the YouTube video recording entitled: 'GrandPrix 2 Soundtrack - Menu 1 
Clean Music', you'll hear a guitar come in at around 0:27 with quite heavy OVERDRIVE.
HOLD CHORD FOR 4 BARS (1 whole of RIFF 1) THEN IT COMES IN AGAIN AT THE START OF RIFF 1
e|--------------------------------------------------------------------------|
B|--------------------------------------------------------------------------|
G|--------------------------------------------------------------------------|
D|-12>>>>>>>>>>>>>>>>-------------------------------------------------------|
A|-12>>>>>>>>>>>>>>>>-------------------------------------------------------|
E|-10>>>>>>>>>>>>>>>>-------------------------------------------------------|

RIFF 4
At 0:41 a nice riff comes in which is after you've played RIFF 3, 2 and about a quarter 
times, you'll know when to play because it will feel right.

e|--------------------------------------------------------------------------|
B|-----6~-6b-6~-------------------------------------------------------------|
G|-5h7~--------7-5-7~~~~~/--------------------------------------------------|
D|--------------------------------------------------------------------------|
A|--------------------------------------------------------------------------|
E|--------------------------------------------------------------------------|

Unfortunately, this is as far as I've managed to get! But I did this all in about 2 
hours and I wanted to document and share wh

Doom 2 – Map 01 solo Tabs by Misc Computer Games

 Doom 2 
Map 1
Guitarsolo

Transcription by Wim den Herder
www.wimdenherder.com

     S S S S S S S S S S S S S S S S    S S S S S S S S S S S S S S S S  
E||--7-3---3-7-8-7-3-----------3-----|--------5-----8-----------8-7-5---|
B||------5-----------5-------5---7-5-|----5-8---8-5---8-5---8-5-------8-|
G||--------------------4---4---------|--5-----------------5-------------|
D||----------------------5-----------|----------------------------------|
A||----------------------------------|----------------------------------|
E||----------------------------------|----------------------------------|
 
 
  S S S S S S S S S S S S S S S S    S S S S S S S S  S S S S E  E   
----------------7---------7-5---7-|------------------10-8-7---------|
------------5-8---5-8-7-5-----8---|--5-------5---8-5--------8-------|
----------------------------------|----4---4---4--------------5--4--|
--9-5---5-9-----------------------|------7--------------------------|
------7---------------------------|---------------------------------|
----------------------------------|---------------------------------|
 
 
  S S S S S S S S S S S S S S S S    S S S S S S S S S S S S S S S S  
----------------------------------|----------5-----------------7-5---|
----------------------------------|--5-8-7-5---8-7-5-0---0-5-8-----8-|
----4-------------4-5-4---4-------|--------------------0-------------|
--5---7-5-------5-------7---5-----|----------------------------------|
----------7---7---------------7---|----------------------------------|
------------7-------------------7-|----------------------------------|
 
 
  S S S S S S S S S S S S S S S S    S S S S S S S S S S S S E  E   
------------------------3-7-3---3-|--------------------------------|
--5-------------------5-------5---|--------------------------------|
----4---------------4-------------|--4---------------4---4-7-5--4--|
------5-2-------2-5---------------|----5-2-5-2---2-5---5-----------|
----------2---2-------------------|------------2-------------------|
------------3---------------------|--------------------------------|
 
 
  S S S S S S S S S  S  S S  S S  S S  
----------5-8-7-5-8-12-10-8---------8-|
--------5-------------------10---10---|
--5---5------------------------9------|
----7---------------------------------|
--------------------------------------|
--------------------------------------|
 
 
   S  S S  S  S  S S  S  S S S S  S S  S S    S S S S S S S S S S S S S S S S  
-------------------------------------------|--5-8-7-5---------5--------------
----------------10-8------------------10-6-|----------5-----5---5---5--------
--10---------10------10--------------------|--------------5-------5---5------
-----10-7-10------------10-7---7-10-7------|------------7---------------7---7
-----------------------------8-------------|------------------------------7--
-------------------------------------------|---------------------------------
 
 
  S S S S S S S S S S S S E  E     E  E  S S S S S S S S S S S S  
----5---------------------------|--------------------------------|
--5---8-6-5---------5-----------|-----5----5---5-------5---5-6-5-|
------------7-5---5---5---------|--------7---7---7-5-7---7-------|
----------------7-------7-------|--------------------------------|
--------------------------8--7--|--------------------------------|
--------------------------------|--------------------------------|
 
 
  S S S S S S S S S S S S S S S S    S S S S S S S S S S S S S S S S  
----------------5-----5-7-8-7-5---|----------------------5-8-5-------|
------5-------5---8-5-----------8-|--5-----5---5-------5-------5-----|
--7-5---5---5---------------------|----7-5---7---5---5-----------5---|
----------7-----------------------|----------------7---------------7-|
----------------------------------|----------------------------------|
----------------------------------|----------------------------------|
 
 
  S S S S S  S  S S

Pokemon – Team Aquamagma Grunt Battle Theme Tabs by Misc Computer Games

 -------------------------------------------------------------------------------
                             Pokemon RSE - Team Aqua/Magma Grunt Battle Theme
-------------------------------------------------------------------------------
: Christopher McLaren
 swampert948@hotmail.co.uk

Tuning: Standard.


Opening Lick:

e|--6-6h7h9p7p6-x4----|
B|--------------------|
G|--------------------|
D|--------------------|
A|--------------------|
E|--------------------|

e|--------------------------------------------5--------------------|
B|-----3-4-6--6--6-6--6--6-7-6--6--6-6--6--6---6--6--6-6--6--6-7---|
G|-----------------------------------------------------------------|
D|-----------------------------------------------------------------|
A|-----------------------------------------------------------------|
E|-----------------------------------------------------------------|

e|------------------5---------------------------------------------------------|
B|--6--6--6-6--6--6----6--4--3---4-3-4-6-4-3-4-7----4-------------------------|
G|-----------------------------3----------------------------------------------|
D|----------------------------------------------------------------------------|
A|----------------------------------------------------------------------------|
E|----------------------------------------------------------------------------|

e|--------------------------------11------------------------------------------------|
B|--6--4--3---4-3-4-6-4-3-4-7-------------------------------------------------------|
G|----------3----------------------------7--7--7--8--8--8--10--10--10--8--8--8------|
D|----------------------------------------------------------------------------------|
A|----------------------------------------------------------------------------------|
E|----------------------------------------------------------------------------------|

e|-----------------------------------------------------------------------------|
B|----------------------------------------------9--7----9-7--------------------|
G|-7-7-7-8-8-8-10-10-8-7---7-10----7---7-8-10--------------8-10----------------|
D|------------------------------------8----------------------------------------|
A|-----------------------------------------------------------------------------|
E|-----------------------------------------------------------------------------|

e|-----------------------------------------------------------------------------------|
B|----------7------------------------------------------------------------------------|
G|--7---7-8---8----------------------------8--------------------8---13---------------|
D|----8----------7-8-10-11---/11---11-9-11--12-11-9-11---11-9-11--11---12-11---------|
A|---------------5-6-8--9------------------------------------------------------------|
E|-----------------------------------------------------------------------------------|

e|------------------------------------------------------|
B|------------------------------------------------------|
G|-----------8------------------------------------------|
D|---11-9-11--12-11-9-11--12--13--14--13--14--15--16----|
A|------------------------------------------------------|
E|------------------------------------------------------|

e|-----------------------------------------------------------------------------|
B|-----------------------------------------------------------------------------|
G|-----------------------------------------------------------------------------|
D|-----------------------------------------------------------------------------|
A|--5h6p5h6h8/9p8p6--5h6p5h6h8/9\8/9--5h6p5h6h8/9p8p6--6p5h6p5h8/9p8p6---------|
E|-----------------------------------------------------------------------------|

e|------------------------------------------------------------------------------|
B|------------------------------------------------------------------------------|
G|--------------

Tekken 5 – Sparking chords – Misc Computer Games

 -------------------------------------------------------------------------------
                             SPARKING - Tekken 5 Intro
-------------------------------------------------------------------------------
: Seismatters
Tuning: Standard
Youtube Reference: https://www.youtube.com/watch?v=hUwupgqpTv8

Part I-
            B 
  I'm here now
             A 
  Doing the best I can
                 B 
  Where are you now?
                        A 
  Did your dreams come true?
           C#m 
  Here we go...

Part II-

 C#m Dm C#m Dm 
  Get out, get out
   C#m    
  SPARKING!
   Dm C#m Dm 
  Get out
   C#m Bm 
  SPARKING!

Part III-

 A B  
  What does the word "peace" mean?
                          C#m 
  There should only be a smiling face?
   C#m B A 
  Answer me, reticent God
                       B 
  But the sun rises again
                         C#m 
  When will that time return?

  Swear you won't give up!

Part III-

         D#m 
  Break out!
 D#m 
  Anything day by day
 D#m 
  Freak out!
 D#m 
  Anything step by step
 D#m 
  Live the sin, and let me know live the sin
 D#m 
  Break down!
 D#m 
  Make my story
 D#m 
  Get down!
 D#m 
  They're called history
 D#m 
  My heartbeat gonna be faster
 D#m 
  Shout, shout, shout, shout, soul

Part IV-

   Bm Am 
  Destiny or deadly
           Gm 
  I don't care which one's walking this way
                   Em 
  They're nothing together
   Am Gm 
  What if I go back to zero?

Part V-

       B 
  Get power of infinity

  All men together make one man
          A 
  At the time of an important decision,
 
  Please do not lose your vision.
 B 
  You're the one

  Show me only your dance in earnest.
 A 
  Even if wrapped in the darkness,

  Light is beyond the horizon.

Part VI-

 C#m 
  SPARKING!
 Gm 
  Believe your own energy!
 C#m 
  SUPER KING!
 Gm 
  Get by my hands!
 C#m 
  SPARKING!
 Gm 
  Now open your wing!
 C#m 
  SUPER KING!
 Gm 
  You can do it!

  Get up, get up, get up, get up, get up

  Take it to top of the world...
 C#m 
  SPARKING!

The Last Of Us – All Gone Its Me Tabs by Misc Computer Games

 (/) Slide Up  (\) Slide Down  (h) Hammer On  (p) Pull Off  (b) Bend (r) Release (v) Vibrato


This beginning part is mostly by feel. The 8 0 section is just hammer on/pull off from 
the 8th fret very gently!
E|----------------------------------------------------------------------------------------|
B|--5-/-8-0-8-0-8-0-8-0-8-0-8-0-7---------5(h)5(h)5(h)-/-8-0-8-0-8-0-8-0-8-0-7(h)8(p)7----|
G|----------------------------------------------------------------------------------------|
D|----------------------------------------------------------------------------------------|
A|----------------------------------------------------------------------------------------|
E|----------------------------------------------------------------------------------------|

                                                          pull off 7 to 5 ghost note here

E|-----------------------------------------------------------------------------------|
B|--8-\-5----------3---1(h)3(p)1---0-----------------5-/-8--8--7-----5-----8-----7---|
G|------------------------------------0----------------------------------------------|
D|---------------------------------------2-------------------------------------------|
A|------3------------------------------------------------7-----5---------------------|
E|---------------------------------0---------------------------------------8-----7---|



E|--------------------------------------------------------------------------------------|
B|--5----8----------7-----(p)5--4--5---7---8----/--12-----12----------------------------|
G|-------5---5------5-------------------------------------------------------------------|
D|-------7-7--------7-----------4-------------------------------------------------------|
A|-------0------------------------------------------------------------------------------|
E|--------------------------------------------------------0-----------------------------|

If you are a bit confused ask questions or watch it here!

http://www.youtube.com/watch?v=kEG_f7YsXJA

Kingdom Hearts Re Chain Of Memories – Just Wondering Tabs by Misc Computer Games

 Here's the riff that repeats throughout the piece

e|---------------------------------|--------------------10--|
G|--6-8-9-6------------------------|--6-8-9-6-------8-------|
B|------------5---7-------5--------|------------5-----------|
D|--------------------6-----5------|------------------------|
A|---------------------------------|------------------------|
E|------------------------------8--|------------------------|

And here's the bass that can be played alongside it

e|---------------------------------|------------------------|
G|---------------------------------|------------------------|
B|---------------------------------|------------------------|
D|---------------------------------|------------------------|
A|--------3------------------------|--------3---------------|
E|--1------------------------------|--1------------3--------|

It's quite an easy piece and very repetitive 

Assassins Creed 4 – William Taylor chords – Misc Computer Games

 F A# C 
William Taylor was a brisk young sailor
 F A# C 
Full of heart and full of play
 F A# C 
Till his mind he did uncover
 F A# A# C F 
To a youthful lady gay

 F A# C 
Four and twenty British sailors
 F A# C 
Met him on the king's highway
 F A# C 
As he went for to be married
 F A# C F           
Pressed he was and sent away


Chorus:
 Dm A# Dm Dm Asus Dm 
Folleri-de-dom, de- daerai di dder o
 Dm A# Gm Dm 
Folleri-de-dom, domme daerai dae
 Dm A# Dm Dm Asus Dm 
Folleri-de-dom, de- daerai di-dder-o
 Dm A# Gm F 
Folleri-de-dom, domme daerai dae

 F A# C 
Sailor's clothing she put on
         F A# C 
And she went on board as a man-o-war
     F A# C 
Her pretty little fingers long and slender
 F A# A# C F 
They were smeared with pitch and tar

 F A# C 
On the ship there was a battle
 F A# C 
She amongst the rest did fight
     F A# C 
The wind blew off her silver buttons
     F A# A# C F 
Her breasts were bared all snowy white


Chorus

 F A# C 
When the captain did discover
    F A# C 
He said Fair maid, what brought you here
 F A# C 
Sir, I'm seeking William Taylor
 F A# A# C F 
Pressed he was by you last year

 F A# C 
If you rise up in the morning
 F A# C 
Early at the break of day
 F A# C 
There you'll find young William Taylor
 F A# A# C F 
Walking with his lady gay 

Chorus

 F A# C 
She rose early in the morning
 F A# C 
Early at the break of day
 F A# C 
There she spied young William Taylor
 F A# A# C F 
Walking with his lady gay

 F A# C 
She procured a pair of pistols
 F A# C 
On the ground where she did stand
 F A# C 
There she shot bold William Taylor
 F A# A# C F 
And the lady at his right hand


Chorus

 Dm A# Dm Dm Asus Dm 
Folleri-de-dom, de- daerai di dder o
 Dm A# Gm Dm 
Folleri-de-dom, domme daerai dae
 Dm A# Dm Dm Asus Dm 
Folleri-de-dom, de- daerai di-dder-o
 Dm A# Gm F 
Folleri-de-dom, domme daerai dae

League Of Legends Theme solo Tabs by Misc Computer Games

 |---------2-3--7--3-2-2-----------------------|
|-0-3-5---------------3------1-0-1------------|
|---------------------2----------2------------|
|---------------------------------------------|
|--------------------------------0------------|
|---------------------------------------------|


|-0-3-5--7-8----8-10----10--12------------|
|------------5-------7--------------------|
|------------5-------7--------------------|
|-----------------------------------------|
|-----------------------------------------|
|-----------------------------------------|