Tag: Control

Ground Control chords by All Time Low ver 2

[Intro]
Bm D F#m E

[Verse 1]
Bm           D
   Ground control
            F#m             E
What do the books say about this one now?
        Bm            D
I think we've lost it all
        F#m                    E             Bm
There's nothing to explain the distances any more
                     D
All systems are critical
                          F#m
Can't find my way back to you
                              E
Feels like there's nowhere to go-oh-oh
    Bm                            D
I'm just out here waiting for you to say
          F#m
Don't be afraid, no
E                      A
If you start floating away

[Chorus 1]
                           E
Hey! I promise you will be fine and have
                     D
The universe on your side when
                                                     F#m
You're out in space (you're out in space). Don't you be afraid, (don't you be afraid) no
E                      A
If you start floating away

                           E
Hey! I promise you will be fine and have
                     D
The universe on your side when
                                                     F#m
You're out in space (you're out in space). Don't you be afraid, (don't you be afraid) no
E                      Bm
If you start floating away

[Instrumental]
D F#m E

[Verse 2]
Bm          D
   Checking in
    F#m            E
300 days with no reply now
        Bm           D
I think I've lost my mind
        F#m                     E                 Bm
There's nothing keeping me from going outside any more
                    D
My systems are critical
                          F#m
Gotta find my way back to you
                        E
Feels like I'm drifting alone
    Bm                         D
I'm just out here wishing that you would say
          F#m
Don't be afraid, no
E                      A
If you start floating away

[Chorus 2]
                           E
Hey! I promise you will be fine and have
                     D
The universe on your side when
                                                     F#m
You're out in space (you're out in space). Don't you be afraid, (don't you be afraid) no
E                      A
If you start floating away

                           E
Hey! I promise you will be fine and have
                     D
The universe on your side when
                                                     F#m
You're out in space (you're out in space). Don't you be afraid, (don't you be afraid) no
E                      Bm
If you start floating away

[Instrumental]
D F#m E

[Bridge]
Bm                 D               F#m
  We gotta make contact to make it out
                 E
We gotta make contact to make it
Bm                 D               F#m
  We gotta make contact to make it out
E                      A
If you start floating away

[Chorus 3]
                           E
Hey! I promise you will be fine and have
                     D
The universe on your side when
                                                     F#m
You're out in space (you're out in space). Don't you be afraid, (don't you be afraid) no
E                      A
If you start floating away

                           E
Hey! I promise you will be fine and have
                     D
The universe on your side when
                                                     F#m
You're out in space (you're out in space). Don't you be afraid, (don't you be afraid) no
E                      A
If you start floating away

[Instrumental]
E D

[Outro]
          F#m
Don't you be afraid, no
E                      A
If you start floating away

Ground Control chords by All Time Low

[Intro]
Bm D F#m E

[Verse 1]
Bm           D
 Ground control
            F#m               E
What do the books say about this one now?
             Bm    A  D
I think we've lost it all
        F#m                     E    
There's nothing to explain the distances any more
Bm               A    D
All systems are critical
                          F#m
Can't find my way back to you
                               E
Feels like there's nowhere to go-oh-oh
   Bm                          D
I'm just out here waiting for you to say
           F#m
Don't be afraid, no
E                       A
If you start floating away

[Chorus]
A
Hey!
                        E       
I promise you we'll be fine and have
                      D
The universe on your side when
You're out in space
          F#m
Don't you be afraid, no
E                       A
If you start floating away

A
Hey!
                        E       
I promise you we'll be fine and have
                      D
The universe on your side when
You're out in space
          F#m
Don't you be afraid, no
E                       Bm
If you start floating away

[Instrumental]
D F#m E

[Verse 2]
Bm    A   D
 Checking in
    F#m              E
300 days with no reply now
           Bm     A   D
I think I've lost my mind
        F#m                      E
There's nothing keeping me from going outside any more
Bm                  D
My systems are critical
                         F#m
Gotta find my way back to you
                          E
Feels like I'm drifting away-oh-oh
     Bm                         D
I'm just out here wishing that you would say
           F#m
Don't be afraid, no
E                       A
If you start floating away

[Chorus]
A
Hey!
                        E       
I promise you we'll be fine and have
                      D
The universe on your side when
You're out in space
          F#m
Don't you be afraid, no
E                       A
If you start floating away

A
Hey!
                        E       
I promise you we'll be fine and have
                      D
The universe on your side when
You're out in space
          F#m
Don't you be afraid, no
E                       Bm
If you start floating away

[Instrumental]
D F#m E

[Bridge]
Bm                 D             F#m
 We gotta make contact to make it out
                  E
We gotta make contact to make it
Bm                 D             F#m
 We gotta make contact to make it out

E                       A
If you start floating away

[Chorus]
A
Hey!
                        E       
I promise you we'll be fine and have
                      D
The universe on your side when
You're out in space
          F#m
Don't you be afraid, no
E                       A
If you start floating away

A
Hey!
                        E       
I promise you we'll be fine and have
                      D
The universe on your side when
You're out in space
          F#m
Don't you be afraid, no
E                       A
If you start floating away

[Outro]
E D 
         F#m         
Don't you be afraid, no
E                       A
If you start floating away

Shes Crazy And She Doesnt Care Tabs – Cloud Control

 Cloud Control - She's Crazy And She Doesn't Care


INTRO

E A D A x2

- the following riff is played in the intro, same goes for the verses (however it is actually played on keys):

e|----------------------------------|
B|-------------7-8-10-8-7-----------|
G|-------6-7-9------------9-7-6-----|
D|-6-7-9------------------------9-7-|
A|----------------------------------|
E|----------------------------------|


VERSE 1
E
Some are born different
Some of us are equal

E A D A

E
Some of us take
Make a living from the people

E A D A


PRE-CHORUS
E     A   D    A
We're not like that
E     A    D        A 
Never even thought about
E     A   D      A
We're not likely to 
       E
Make a profit anyway

E A D A x2


VERSE 2
        E
Will we ever catch up 
Will we talk 
Will we speak again

E A D A

           E
Now you're working for the man 
Change sides and you're one of them

E A D A


PRE-CHORUS
E     A   D    A
We're not like that
E     A    D        A 
Never even thought about
E     A   D      A
We're not likely to 
       E
Make a profit anyway


G#m  A  E  G# 
C#m  B  A  D 
F#m  A


CHORUS
    E                    G#                     C#m  B
The only one you love is crazy and she doesn't care
A                          D            F#m   A
Don't stop runnin till you work it out, yeah
    E                    G#                     C#m  B
The only one you love is crazy and she doesn't care
A                          D            F#m   A
Don't stop runnin till you work it out, yeah
    E                    G#                    A    E   
The only one you love is crazy and she doesn't care


- play riff twice, before returning to verse


VERSE 3
E
Some are born different
Some of us are equal

E A D A

E
Some of us take
Make a living from the people

E A D A


PRE-CHORUS
E     A   D    A
We're not like that
E     A    D        A 
Never even thought about
E     A   D      A
We're not likely to 
       E
Make a profit anyway

G#m  A  E  G# 
C#m  B  


CHORUS
A                          D            F#m  A
Don't stop runnin till you work it out, yeah
    E                    G#                     C#m  B
The only one you love is crazy and she doesn't care
A                          D            F#m   A
Don't stop runnin till you work it out, yeah
    E                    G#                    A    
The only one you love is crazy and she doesn't care


OUTRO

E A D A x2

end on E











Tombstone chords – Cloud Control

 Cloud Control - Tombstone


INTRO

 Dm 


VERSE 1
        Dm       
You say you care
             Am F 
We could be in the sun
             Dm 
You say you mean it
                Am 
Write it on my tombstone
        F 
My tombstone
Yeah

 Dm       \
 Am F   / x2


VERSE 2 
             Dm 
You don't believe me
                 Am F 
You think we're having fun
               Dm 
You think I'm joking
                  Am      
Write it on your tombstone
          F       
Your tombstone
Yeah


INTERMEZZO

 Gm F Ebmaj7 F 


VERSE 3
        Dm 
You say it's love
             Am F 
I'm on your coffee cup
            Dm 
You say it feels right
                Am       
Write it on my tombstone
        F 
My tombstone


BRIDGE

 Gm F   \
 Ebmaj7 F   / x2

                Gm F   \
Write it on my tombstone,    \
 Ebmaj7 F                  / x2
Calm me down                / 


OUTRO

From 2:43 or so, it's continuously in the following chords until the end

 Dm Am F

The Smoke The Feeling chords – Cloud Control

 Cloud Control - The Smoke, The Feeling


INTRO

 Dm 


VERSE 1
 Dm G Am 
 Leave a trace on me in colours
 C F 
Dark vivid hues
 Dm G Am 
 No one would expect these colours
    C F 
To compliment the rest


PRE-CHORUS
 F G F G F  
 Taking note of all that was wrong
      G Am C F 
But is it possible you can't take love along

 G Am C 


CHORUS
               F 
When you reappear
                       Em 
It's like we're still waiting
        Am 
Fire behind
 C F 
 The smoke the feeling

You reappear
                   Em 
And the world I'm breathing
               Am 
It tastes of all
 C F 
 That I've been dreaming


VERSE 2
 Dm G 
 A parcel returns
   Am C F        
I run run run til my feet burn
 Dm G 
 Burning down your door
     Am 
I'm falling
 C F 
How can I want more


- play pre-chorus and chorus again -


SOLO (played over the chords of the verse)

 Dm G   \
 Am C F   / x2


- play chorus again (without band) and repeat the last four lines when the band kicks in -


OUTRO
      F 
I'm dreaming
      Em 
I'm dreaming
      Am   
I'm dreaming
 C F        
Everything I'm dreaming

 G F G  ...

Into The Line chords – Cloud Control

 Cloud Control - Into The Line


INTRO

 Em D    \
 G A    / x4 (the guitar plays the chords along the third and fourth time)


    like this..
e|-------------------------------------------------------------|
B|--------8---------7--7--7------------------------------------|
G|--------9---------7--7--7-------------4-----------6--6--6----|
D|--------9---------7--7--7-------------5-----------7--7--7----|
A|-7-------------5----------------------5-----------7--7--7----|
E|-------------------------------3---------------5-------------|


VERSE 1
 Em D G A Em D G A    
Two young ones walking home in hands
 Em D 
I can't say how
     G A Em D G A 
I'm sitting on the beach with a guitar in my hand


VERSE 2
 Em D 
As they walk by
   G A Em D G A 
I pull my head down over my hands
 Em D 
Sing into the water
 G A Em D G A     
 And sing into the sky


CHORUS
 E D 
Look into the line
 G A E D G A 
 At all the families in the sky
 E D G A E D G A  
Some of them are smiling and they don't even know why


BREAK

 Em D    \
 G A    / x6 (guitar plays along fifth and sixth time)


- play CHORUS twice -


OUTRO

 E D    \
 G A    / x6

end on  E

Crazy For You chords – Hedley

 "Crazy For You" - Hedley

STANDARD TUNING (EADGBe)

**CAPO 2**

 C 
You're whole lotta crazy
 G 
I think you like it too
 Em 
But let me tell you baby
 B B7                
I'm so crazy for
                        C G Em B 
That's some good shit 
        C G 
Whoa yeah, that's some good shit (oh)
                         Em 
that's some good shit (ooh)
                         B 
that's some good shit (yeah)

                                 C G 
There's something bout the bright lights
                       Em B 
You find them on the right nights
                   C G 
Forces you just can't fight
                         Em B 
You're trouble but it's alright (yeah)
         C G 
Take control, please own me
 Em B C 
Only love can save me

                          G 
You're whole lotta crazy
                         Em 
I think you like it too

But let me tell you baby 
 B C 
I'm so crazy for you
                               G 
So lose your mind, you psycho
                       Em 
I think I like it too

I gotta tell you baby 
 B C 
I'm so crazy for you

                 G 
So crazy (oh)
                 Em 
So crazy (ooh)

So crazy, baby
                   C 
I'm so crazy for you
                         G 
That's some good shit
                         Em 
That's some good shit
                         B 
That's some good shit

                  C G 
Upper class corruption 
                 Em B 
Stone-cold seduction
                             C G 
It's that I just can't get enough of
                           Em B 
Your freak show keeps me coming  (yea-eh)
         C G 
Take control, please own me
 Em B C 
Only love can save me

                          G 
You're whole lotta crazy
                         Em 
I think you like it too

But let me tell you baby 
 B C 
I'm so crazy for you
                               G 
So lose your mind, you psycho
                        Em 
I think I like it too

I gotta tell you baby 
 B C 
I'm so crazy for you


               G 
So crazy (oh)
                 Em 
So crazy (ooh)

So crazy, baby
                   C 
I'm so crazy for you
                         G 
That's some good shit
                         Em 
That's some good shit
                        
That's some good shit
 B C 
I'm so crazy for you

                         G 
That's some good shit
                         Em 
That's some good shit
                        
That's some good shit
 B C   
I'm so crazy for you

                      G 
So crazy (yeah yeah)
                      Em 
So crazy (yeah yeah)

So crazy, baby
 B C 
I'm so crazy for you
                 G 
So crazy (yeah)

Oh I'm so crazy for you 
 Em B 
Baby, I'm so crazy for you

         C 
Take control
(that's some good shit)
         G 
Please own me
(that's 

Let Me Love You Acoustic chords – Mario

 Capo on 3 :)
 
 Am Em D 
Mmmm ..... Mmmmm.... Yeah....Mmmmm....Yeah, Yeah, Yeah


[Verse 1:]

 Am 
Baby I just don't get it

 Em 
Do you enjoy being hurt?

 D D 
I know you smelled the perfume, the make-up on his shirt

 Am 
You don't believe his stories

 Em 
You know that they're all lies

 D D D 
Bad as you are, you stick around and I just don't know why


 Am 
If I was ya man (baby you)

 Em 
Never worry bout (what I do)

 D 
I'd be coming home (back to you)

 Am D 
Every night, doin' you right

 Am 
You're the type of woman (deserves good thangs)

 Em 
Fistful of diamonds (hand full of rings)

 D D 
Baby you're a star (I just want to show you, you are)


[Chorus:]

 Am 
You should let me love you

 Em D 
Let me be the one to give you everything you want and need

 Am 
Baby good love and protection

 Em 
Make me your selection

 D 
Show you the way love's supposed to be

                        Am Em D 
Baby you should let me love you, love you, love you


[Verse 2:]


Listen

 Am Em 
Your true beauty's description looks so good that it hurts

 Em D 
You're a dime plus ninety-nine and it's a shame

 D 
Don't even know what you're worth

 Am 
Everywhere you go they stop and stare

 Em 
Cause you're bad and it shows

 D D D 
From your head to your toes, Out of control, baby you know


 Am 
If I was ya man (baby you)

 Em 
Never worry bout (what I do)

 D 
I'd be coming home (back to you)

 Am D 
Every night doin' you right

 Am 
You're the type of woman (deserves good thangs)

 Em 
Fistful of diamonds (hand full of rings)

 D D 
Baby you're a star (I just want to show you, you are)


[Chorus:]

 Am 
You should let me love you

 Em D 
Let me be the one to give you everything you want and need

 Am 
Ooh Baby good love and protection

 Em 
Make me your selection

 D 
Show you the way love's supposed to be

 D 
Baby you should let me....


[Bridge:]

 Am 
You deserve better girl (you know you deserve better)

 Em 
We should be together girl (baby)

 D Am 
With me and you it's whatever girl, hey!

 D 
So can we make this thing ours?


[Chorus:]

 Am 
You should let me love you

 Em D 
Let me be the one to give you everything you want and need

 Am 
Baby good love and protection

 Em 
Make me your selection

 D 
Show you the way love's supposed to be


      Am 
Baby you should let me love you

 Em D 
Let me be the one to give you everything you want and need

 Am 
That good love and protection

 Em 
Make me your selection

 D 
Show you the way love's supposed to be


 Am 
You should let me love you

 Em D 
Let me be the one to give you everything you want and need

 Am 
Good love and protection(protection)

 Em 
Make me your selection(selection)

 D 
Show you the way love's supposed to be yeah

                       

Control chords – Broken Bells

 [Intro]
 Am E G D F Am 
Well it started as a game
       E 
using pleasure using pain
        G D 
We got higher and higher that way
        F 
But it didn't work today
      Am 
Even though it felt so right
           E 
Nothing's permanent in life
         G D 
so it's useless to hold on so tight

                      F 
You've gotta give it up give it up give it up 
    Am 
Ohhh give it up give it up
    E D 
Ohhh give it up give it up you lost control
      
cause nothing stands around too long

        Am 
so now everything has changed
          E 
and your heart's been rearranged
       G D 
until nothing we've known here remains
         F 
and you say you shouldn't stay
            Am 
as you're taking off your clothes
                E 
you think it's loving I suppose
               G D 
it's just you endlessly needing control

                           F 
Well you've gotta give it up give it up give it up 
    Am 
Ohhh give it up give it up
    E D 
Ohhh give it up give it up you lost control
      
cause nothing stands around too long


 F Am 
  cause nothing stands around too long
                           E 
nothing stands around too long
             D 
you lost control

you gotta give it up

[Outro (repeat as desired]
 F Am E D

Under Control chords – Calvin Harris

 Tuning:Standard.
There's a version without capo at the end.
Capo:1

 C Am 
 I might be anyone
 Em D 
 A lone fool out in the sun
 C Am 
 Your heartbeat of solid gold
 Em D 
 I love you, you'll never know
 C Am Em 
 When the daylight comes you feel so cold,
 D 
You know
 C Am Em 
 I'm too afraid of my heart to let you go
 D C 
Waiting for the fire to light
 Am Em 
Feeling like we could do right
 D C 
Be the one that makes tonight
  Am Em 
'Cause freedom is a lonely road
 D 
We're under control
Riff:

e|--3-3-2-2-0503-3-3-3-3---3-3-2-2-0503-3-3-78------------------------------|
B|--------------------------------------------------------------------------|
G|--------------------------------------------------------------------------|
D|--------------------------------------------------------------------------|
A|--------------------------------------------------------------------------|
E|--------------------------------------------------------------------------|

X4



We're under control

I might be anyone
A lone fool out in the sun
Your heartbeat of solid gold
I love you, you'll never know

When the daylight comes you feel so cold,
You know
I'm too afraid of my heart to let you go

Waiting for the fire to light
Feeling like we could do right
Be the one that makes tonight
'Cause freedom is a lonely road
We're under control

Waiting for the fire to light
Feeling like we could do right
Be the one that makes tonight
'Cause freedom is a lonely road
We're under control

We're under control


No capo tabs:
 C# Bbm 
 I might be anyone
 Fm Eb 
 A lone fool out in the sun
 C# Bbm 
 Your heartbeat of solid gold
 Fm Eb 
 I love you, you'll never know
 C# Bbm Fm 
 When the daylight comes you feel so cold,
 Eb 
You know
 C# Bbm Fm 
 I'm too afraid of my heart to let you go
 Eb C# 
Waiting for the fire to light
 Bbm Fm 
Feeling like we could do right
 Eb C# 
Be the one that makes tonight
  Bbm Fm 
'Cause freedom is a lonely road
 Eb 
We're under control

Gang Control Tabs by Leftover Crack V5

 -----------------------------------------------------------------------------
                       Leftöver Crack - Gang Control
-----------------------------------------------------------------------------

finally tabbed this for all those crack rockers out there, enjoy


: free_mollusk 
 mollusk44

Tuning: Standard 


Intro [clean] 

e|-----------------------------------------------------|
B|-----------------------------------------------------|
G|-----------------------------------------------------| x2
D|--------7-6-4----------------------9-7-6-------------|
A|-4-7-4--------7-6-4---------7-9-7--------9-7-6-------|
E|---------------------4-5-4----------------------9-7--|



Verse [clean]

e|-x-4-x-4-x-4-x-4-x-4--4/5--x-x-x-x-x-x-x-x-x-x--5/7--|
B|-x-5-x-5-x-5-x-5-x-5--4/5--9-x-9-x-9-x-9-x-9-x--5/7--|
G|-x-6-x-6-x-6-x-6-x-6--5/6--9-x-9-x-9-x-9-x-9-x--6/8--|
D|----------------------6/7--9-x-9-x-9-x-9-x-9-x--7/9--|
A|-----------------------------------------------------|
E|-----------------------------------------------------|



verse part 2 [clean]

e|-x-4-x-4-x-4-x-4-/-5-x-5-/-7-x-7--x-x-x-x-x-7-x-7-x-9--x-9--x-5-x-5--|
B|-x-5-x-5-x-4-x-4-/-5-x-5-/-7-x-7--x-9-x-9-x-7-x-7-x-10-x-10-x-5-x-5--|
G|-x-6-x-6-x-5-x-5-/-6-x-6-/-8-x-8--x-9-x-9-x-8-x-8-x-11-x-11-x-6-x-6--|
D|-----------6-x-6-/-7-x-7-/-9-x-9--x-9-x-9-x-9-x-9-x-9--x-9--x-7-x-7--|
A|---------------------------------------------------------------------|
E|---------------------------------------------------------------------|


pre-chorus 1st part [distorted] 

e|--------------------------|
B|--------------------------|
G|--9-9-9-8-8-8-6-6-6-2-2-2-| x2
D|--9-9-9-8-8-8-6-6-6-2-2-2-|  
A|--7-7-7-6-6-6-4-4-4-0-0-0-|
E|--------------------------|


pre-chorus 2nd part

e|------------------------------------------------------------------------------------------|
B|------------------------------------------------------------------------------------------|
G|-13-13-13-13-13-13-13-13-13-13-13-13--16-16-16-16-16-16-16-16-16-16-16-16---16--13-14-13--|
D|--x--x--x--x--x--x--x--x--x--x--x--x---x--x--x--x--x--x--x--x--x--x--x--x----x---x--x--x--|
A|-11-11-11-11-11-11-11-11-11-11-11-11--14-14-14-14-14-14-14-14-14-14-14-14---14--11-12-11--|
E|------------------------------------------------------------------------------------------|


chorus [distorted] 

e|------------------------------|
B|------------------------------|
G|--------------4/6--4-x-x-4/9--| x2
D|-2------x--x--4/6--4-x-x-4/9--|
A|-2-x-x--x--x--2/4--2-2-2-2/7--|
E|-0-0-0-+3-+3------------------|
         harmon.     harmon.


2nd Verse

pre-chorus

after 2nd Chorus ("Around the globe..")

e|---------------------------------------|
B|---------------------------------------|
G|------6\4-2--2-4/6------6\4-2--2-4/6---|
D|-2--2-6\4-2--2-4/6-2--2-6\4-2--2-4/6---|
A|-2--2-4\2-0--0-2/4-2--2-4\2-0--0-2/4---|
E|-0--0--------------0--0----------------|


then..


Verse [clean]  (only one time at this point)

e|-x-4-x-4-x-4-x-4-x-4--4/5--x-x-x-x-x-x-x-x-x-x--5/7--|
B|-x-5-x-5-x-5-x-5-x-5--4/5--9-x-9-x-9-x-9-x-9-x--5/7--|
G|-x-6-x-6-x-6-x-6-x-6--5/6--9-x-9-x-9-x-9-x-9-x--6/8--|
D|----------------------6/7--9-x-9-x-9-x-9-x-9-x--7/9--|
A|-----------------------------------------------------|
E|-----------------------------------------------------|

 
verse part 2 [clean]  (play this only one time too)

e|-x-4-x-4-x-4-x-4-/-5-x-5-/-7-x-7--x-x-x-x-x-7-x-7-x-9--x-9--x-5-x-5--|
B|-x-5-x-5-x-4-x-4-/-5-x-5-/-7-x-7--x-9-x-9-x-7-x-7-x-10-x-10-x-5-x-5--|
G|-x-6-x-6-x-5-x-5-/-6-x-6-/-8-x-8--x-9-x-9-x-8-x-8-x-11-x-11-x-6-x-6--|
D|-----------6-x-6-/-7-x-7-/-9-x-9--x-9-x-9-x-9-x-9-x-9--x-9--x-7-x-7--|
A|---------------------------------------------------------------------|
E|---------------------------------------------------------------------|


[distorted]

                                     x2 
e

Thought Control Tabs by The Rival Mob

 -------------------------------------------------------------------------------
                             THOUGHT CONTROL - The Rival Mob
-------------------------------------------------------------------------------

Thought Control
The Rival Mob
Mob Justice
Revelation Records

http://www.revelationrecords.com/band/191

Tuning: Standard

INTRO
e|---------------------------------------------------------------------------|
B|---------------------------------------------------------------------------|
G|---------------------------------------------------------------------------|
D|-6-666-6-666-6-6-6----6----------6-5-2-6----------6-5-2--------------------|
A|-6-666-6-666-6-6-6----6----------6-5-2-6----------6-5-2--------------------|
E|-4-444-4-444-4-4-4----4----------4-3-0-4----------4-3-0--------------------|

VERSE
e|---------------------------------------------------------------------------|
B|---------------------------------------------------------------------------|
G|------------6-7--7-7--7-7-7-7--9--9-9-9-6-6-6-7--7-7-7-7-7-7-7-------------|
D|-6--6-6-6-4-6-7--7-7--7-7-7-7--9--9-9-9-6-6-6-7--7-7-7-7-7-7-7-------------|
A|-6--6-6-6-4-4-5--5-5--5-5-5-5--7--7-7-7-4-4-4-5--5-5-5-5-5-5-5-------------|
E|-4--4-4-4-2----------------------------------------------------------------| 
                                                                               x2
e|---------------------------------------------------------------------------|
B|---------------------------------------------------------------------------|
G|------------6-7--7-7--7-7-7-7-6--6-6-6-------------------------------------|
D|-6--6-6-6-4-6-7--7-7--7-7-7-7-6--6-6-6--7-9--9-9-9-9-9-9-9-----------------|
A|-6--6-6-6-4-4-5--5-5--5-5-5-5-4--4-4-4--7-9--9-9-9-9-9-9-9-----------------|
E|-4--4-4-4-2-----------------------------5-7--7-7-7-7-7-7-7-----------------|

CHORUS
e|---------------------------------------------------------------------------|
B|---------------------------------------------------------------------------|
G|---------------------------------------------------------------------------|
D|-6--5--2--6--7--9-6--------6--5--2--6--7--9-4----6-7-----------------------| x2
A|-6--5--2--6--7--9-6--------6--5--2--6--7--9-4----6-7-----------------------|
E|-4--3--0--4--5--7-4--------4--3--0--4--5--7-2----4-5-----------------------|

INTRO x1
VERSE x2
CHORUS x2

At end of last chorus repeat this once
e|------------|
B|------------|
G|------------|
D|-4----6-7---|
A|-4----6-7---|
E|-2----4-5---|

BREAKDOWN/OUTRO
e|---------------------------------------------------------------------------|
B|---------------------------------------------------------------------------|
G|---------------------------------------------------------------------------| 
D|-6----9--4-6-----6-9-10-----12--10-9---------------------------------------| x6
A|-6----9--4-6-----6-9-10-----12--10-9---------------------------------------|
E|-4----7--2-4-----4-7-8------10--8--7---------------------------------------|

END ON (bass/drums plays till fade out)
e|---------------------------------------------------------------------------|
B|---------------------------------------------------------------------------|
G|---------------------------------------------------------------------------|
D|-6-------------------------------------------------------------------------|
A|-6-------------------------------------------------------------------------|
E|-4-------------------------------------------------------------------------|

Under Control solo Tabs by Calvin Harris

                   Calvin Harris Under Control
                               
                          1st Riff

e---------------------------------------------------------------|
B--99---88---6--11--6---9-9-9-9-9-9-----------------------------|
G---------------------------------------------------------------|
D---------------------------------------------------------------|
A---------------------------------------------------------------|
E---------------------------------------------------------------|              

                          2nd Riff

e-----------------------------8-9-------------------------------|
B--99---88---6--11--6---9-9-9-----------------------------------|
G---------------------------------------------------------------|
D---------------------------------------------------------------|
A---------------------------------------------------------------|
E---------------------------------------------------------------|

Self Control chords – The Smith Street Band

 Hey guys,

I put this together and figured I'd share it cause these guys are awesome and no where 
near popular enough.  I saw them live opening for Frank Turner a couple weeks ago and was 
blown away.

There's a three chord progression heading into the chorus that I have yet to sound out, 
if you've got it go ahead and share it.

These are the chords but most of the song is a picked variation of this, listen to 
figure out timing.

Also, the lyrics are as close as I could figure out, might not be 100% but it's close.

As for the chords, I think it sounds best using bar chords for Bm, G, A, and just a 
regular open D.

Edit: Wow never noticed how difficult they make it to format these, the chords are in 
the right order, just play along with the song.



First Verse

 D Bm 
The night we said that we had won at life,

                         G A 
We were high as fucking kites, above the city,

                                                            D 
No ones ever looked as pretty as when you turned to walk away

                                              Bm 
Had to silence my addiction, my inherent invincibility

                                              G 
But we all learn from and yearn for what we had,

                               A 
In the guts of the glory days,

                       D Bm 
Look back and be nostalgic, to blanket our current fears,

                                 G A 
I look death in the eye once a week, For a couple of years



Chorus

 G D 
Come on teach me self control, Come on tell we what to say x2

              Bm A G 
And I dont think that I could make anyone feel like this

                            D Bm 
Dont think I could make anyone feel like this

                            A D 
Dont think I could make anyone feel this shit



Verse Two

 D Bm 
My formative years I got as drunk as anyone

                                   G 
And I wonder how that will affect me,

                                     A 
Now that those years have been and gone,

                    D Bm 
My stagnant half form, my mind malnourished and my bones near breaking,

                        G 
Why does everyone come up like this

                 A 
Never giving, always taking

                     D Bm 
The issues that we let cloud our heads to distract ourselves from how fucked we truly are


 G 
Passion can be pointless if it’s all for passion sake
         A 
Thank everything I found else my life, woulda been a complete waste



Chorus

 G D 
Come on teach me self control, Come on tell we what to say x2

              Bm A G 
And I dont think that I could make anyone feel like this

                                  D Bm 
Dont think that I could make anyone feel like this

                                 A G 
Dont think that I could make anyone feel this shit



Bridge

 G D G 
These dreams unfamiliar but sincere,

                                            D G 
Let myself disappear in the warmth of the back seat

                              D G 
Press my knees into the fake sheepskin

                                      D 
Trying to pick who next to run away with

                               Bm 
Cause

You Remind Me Of You Tabs by Jack Johnson

 Jack Johnson-You remind me of you

Hey folks here's one of my favourite songs from the new JJ LP from here to now to 
you. Hope you like it. feel free to rate and to comment ;-)

Standard tuning (EADGBE)

Chords:
B (799877)
G#m (466444)
C#m7 (9119999) or (x46454)
F#7 (242322)
G# (466544)u can also play G#7 (464544)
C# (x46664)
E7 (x79797) or (020100)

Intro,Verse:

     B                  G#m               C#m7            F#7
-----------------------------------------------------------------------
-----------------------------------------------------------------------
-----------8------------------4------------------9--------------3------
-----9--------9----------6-------6-----------9-----9--------2-----2----
-----------------------------------------------------------------------
--7-----7-------7/4---4-----4--------4\9---9---9-----9/2--2---2-----2\7 

Well your mama made your pretty 
And your mama made you sweet
Your daddy gave you daydreams 
And more cushion in your seat 
Your mama gave you those windows 
To your beautiful soul
Your daddy got more love for you 
Then you could ever know 

You remind me of you 
Yes you do now 
You remind me of you 
Yes you do 

here comes the badubadubadu part at the end of the chorus :-)

   B      Bb  A   G#               C#m7         F#7
---------------------------------------------------------------------------
-----------------------4---------------------------------------------------
-------8-----------------5------------9--------------3---------------------
---9-------8--7---6----------6----9-----9--------2------2------------------
---------------------------------------------------------------------------
-7---7---6--5---4---4------4----9---9-----9/2--2---2------2\7--------------

Well your mama made a promise 
That your daddy's gonna keep 
Forever's how long 
Your mama's going to love your 
Daddy made you messy 
And your mama made you neat 
Forever's how long your daddy's gonna love your 
Mama made a clone 
So she won't be alone 
When the boys and me are getting 
So out of control 

You remind me of you 
Yes you do now 
You remind me of you 
Yes you do 

(same pattern as in the first verse and chorus)

then comes the bridge: ' When you cry,...'

   G#7                C#             E7       F#7      B
-------------------------------[------------------------------]
-----------------------6-------[------9-----------------------]
-------5-----------6-----6---6-[---7----------3---------8-----]
---4-----4---4-----------------[----------2---------9-----9---]repeated  
-----------------4---4-----4---[-7--7-------------------------]4 times
-4--4------4-------------------[--------2---2--/--7---7-----7-]

When you cry when you cry 
Well your mama's gonna dry your eyes
When you cry when you cry 
Well your mama's gonna dry your eyes
And your daddy's sure gonna try 
But only mama's gonna dry your eyes 
But your daddy's sure gonna try



that's the whole song... enjoy playing and thanx for rating

t.bingenheimer 

The Terror Chords – Flaming Lips

 The Flaming Lips
The Terror - Chords
The Terror

Intro (0:01-0:21)

      F#m E F#m F#m F#m E F#m F#m 

Verse 1 (0:21-1:01)

      F#m E F#m 
     However love can help you
      F#m E F#m 
     We are all standing alone
      F#m E F#m 
     The terror's in our heads
      F#m E F#m 
     We don't control the controls

Break 1 (1:01-1:11)

      F#m 

Verse 2 (1:11-1:50)

      F#m E F#m 
     I turn to face the sun
      F#m E F#m 
     We are still standing alone
      F#m E F#m 
     At last we'll sing of the terror
      F#m E F#m 
     It helps us hold the controls

Chorus (1:50-2:30)

            F#m E F#m 
     We'll sing in the sunshine
            F#m E F#m 
     We'll laugh every day
            F#m E F#m 
     We'll sing cause love will save us
          F#m E F#m 
     The sunshine every day

Break 2 (2:30-2:50)

      F#m 

       A second guitar can play this.
     e|---------------------------------------------------------------|
     B|-5---2---5---2---5---2---5---2---5---2---5---2---5---2---3---2-|
     G|---------------------------------------------------------------|
     D|---------------------------------------------------------------|
     A|---------------------------------------------------------------|
     E|---------------------------------------------------------------|

     OR:

     One guitar can play both the rhythm and lead.

     e|-0-------0-------0-------0-------0-------0-------0-------------|
     B|-2---2---2---2---2---2---2---2---2---2---2---2---2---2---3---2-|
     G|-2---2---2---2---2---2---2---2---2---2---2---2---2---2---2---2-|
     D|-4---4---4---4---4---4---4---4---4---4---4---4---4---4---4---4-|
     A|-4---4---4---4---4---4---4---4---4---4---4---4---4---4---4---4-|
     E|-2---2---2---2---2---2---2---2---2---2---2---2---2---2---2---2-|

Chorus (2:50-3:30)

Break 2 x2 (3:30-4:10)

Bridge (4:10-4:49)

      F#m 
     Your voice says yes but I can't go on
      F#m 
     Your voice says yes but I can't go more
      F#m 
     What gives judgment the final word
      F#m 
     When at once the sacred word can't be heard

Break 2 x2 (4:49-5:29)

The song fades out during this last part.

Tattoo Of Her Name Chords – Vast

 Tattoo Of Her Name
-------------------
 Em (1 bar)
 Em 
She told me he was beating her today
                                         Am 
And she showed me all the bruises on her face
 Am 
I said, baby, can I make it all OK
 B 
She said, honey, you should make him go away


 Em 
There's a hundred thousand dollars in the bank
                                 Am 
And the policy he took out yesterday
 Am 
We can live outside the country for awhile
 B Am 
Until things smooth over and get under control

 B D Am                                      
There's a tattoo of your name across my soul
[Same chords throughout]

I bought a rifle and black guns without a name
For an alibi she went six states away
When I saw him I felt fire I felt cold
Like the devil and the lord wanted my soul

Like the tattoo of your name across my soul

So I shot him in his car until he died
I called to give the signal and she cried
Life has a way of making other plans
She called the cops and said I was a crazy man

I'm gonna get this thing removed when I can

[Solo]

There was never any policy
And the bruises came from falling on the street
So the judge gave me one hundred thousand years
In the courtroom she was filling up with tears

I saw her hold the lawyer's hand real tight
They looked tired from lack of sleep last night
Seems the whole time she had me under control

With a tattoo of her name across my soul

She gets off and I will never have parole

Just this tattoo of your name across my soul
Just this tattoo of your name across my soul

A Bar In Amsterdam Chords – Katzenjammer V2

 Capo on 3



Verse:

 Em 
Nine hours passed and how long will it last
          C G 
said the man with the plan and a gun in his hand.
 Em 
He´s scared but prepared it might be as he feared
          C G 
are they still in control and safe behind the wall.
 Em 
This evening's too quiet oh we need a real riot
    C G 
to shake and to break and to bite like a snake.
 Em 
We're stuck in this attic so bored and so static
   C G D      
tomorrow they'll ask us to throw off our maaaaaaasks.


Chorus:

         Em C G D 
But the storm is a'coming 'cross the hills tonight
       Em C G D 
like a vain full of rain to the hearts that should fight.
     Em C G D 
The storm is a'coming 'cross the hills tonight
       Em C G D Em 
like a vain full of rain to the heeeeaaaaarts that should fight.


Trumpet Interlude:

 Em C G Em  (x2)  C G D  (x2)


Verse:

 Em 
Mary's like me she's a loser to be
       C G 
got a lock on her door and a bed on the floor.
 Em 
They will know they will win and then they'll come in.
         C G       
There's nothing you could say to lead them astray.
     Em 
We still live in silence like sworn threats of violence.
   C G 
I long for an end and it's coming round the bend.
       Em 
If we live through this night and we'd still be allright.
      C G D 
We'd flee to Siam or a bar in Amsterdaaaaaam.


Chorus:

         Em C G D 
But the storm is a'coming 'cross the hills tonight
       Em C G D 
like a vain full of rain to the hearts that should fight.
     Em C G D 
The storm is a'coming 'cross the hills tonight
       Em C G D Em 
like a vain full of rain to the heeeeaaaaarts that should fight.


Trumpet Interlude:

 Em C G Em  (x2)  C G D  (x2)


         Em C G D 
But the storm is a'coming 'cross the hills tonight
       Em C G D 
like a vain full of rain to the hearts that should fight.
     Em C G D 
The storm is a'coming 'cross the hills tonight
       Em C G D               
like a vain full of rain to the heeeeaaaaart.
     Em C G D 
The storm is a'coming 'cross the hills tonight
       Em C G D Em 
like a vain full of rain to the heeeeaaaaarts that should fight.

Rise Above Chords – Black Flag

 Black Flag
Rise Above
Submitted by: jeremyunderground41@yahoo.com

Key: E, D, G, C

Tuning: Standard EADGBe

Choruds used:
 E  -  022100
 Eb  - x68886
 D  -  xx0232
 C#  - x46664
 G  -  320033
 Am  - x02210
 F  -  133211
 C  -  x32010
 Bm  - x24432
 Em  - 022000
 Dm  - xx0231


Intro: Drumbeats
 E - Eb - D - C# - x4

 G Am G Am E Eb D C# G Am C Em F G Am   


Verse 1:
 D 
Jealous cowards 
try to control
 G Am 
rise above we're 
       G Am 
gonna rise above
 D 
they distort 
what we say
 G Am 
rise above we're 
       G Am 
gonna rise above
 D 
try and stop what we do
 G Am 
rise above we're 
       G Am 
gonna rise above
 D 
when they can't 
do it themselves
 G Am 
rise above we're 
       G Am 
gonna rise above


Chorus:
 Bm C 
we are tired
    G G Am 
of your abuse
 Bm D 
try to stop us
     Bm G Am G Am 
but its no use


Verse 2:
 D 
societys arm's 
out of control
 G Am 
rise above we're 
       G Am 
gonna rise above
 D 
think there smart can't 
think for themselves
 G Am 
rise above we're 
       G Am 
gonna rise above
 D 
laugh at us
behind our backs
 G Am 
rise above we're 
       G Am 
gonna rise above
   D 
i find satisfaction 
in what they lack
 G Am 
rise above we're 
       G Am 
gonna rise above


(Repeat Chorus)


Guitar Solo: 
Dm--G-Am-G-Am- x2


Verse 3::
 D 
we were born 
with a chance 
 G Am 
rise above we're 
       G Am 
gonna rise above
 D 
i am gonna have 
my chance
 G Am 
rise above we're 
       G Am 
gonna rise above
 D 
we were born
with a chance 
 G Am 
rise above we're 
       G Am 
gonna rise above
 D 
i am gonna 
have my chance
 G Am 
rise above we're 
       G Am 
gonna rise above


(Repeat Chorus)


Outro:
 G Am 
rise above 
 G Am 
rise above
 G Am 
rise above
             G Am 
we're gonna rise above
             G Am 
we're gonna rise above
             G Am (hold)
we're gonna rise above

Out Of Your Hands Live Chords – Jason Mraz

 This is my first tab. Hope you like it :)

Note: Sometimes he plays the chords a little different. He does that with the C --
> C7 and the D --> Dsus4. You really have to watch the video for that: 


Capo 3

Oooh...
 Em Em C G  2x

 Em Em C G 
You went walking away, into the sun
 Em Em C G 
How romantic, no i knew we were done

                    Em Em C G 
Was it something I said, something I did, it must be over my head
                      Em Em C C 
I didn't quite understand it, now it's out of my hands, it's out of my hands

 Em Em C G  
I am sorry for the way you was feeling about yourself, every day
 Em Em C G 
Baby you needed me to make it, so you can keep on running away

                     Em Em C G 
Was it something I said, something I did, it must be over my head
                       Em Em C C 
I didn't quite understand it, now it's out of my hands, it's out of my hands

           G G D D  
When it feels like life has gotten out of control,
           Em Em C C  
when it feels like much too much to hold
           G G D  
When it feels like too much to understand

 B7 Em C G  
Know, that's out of your hands, out of your hands, out of your hands

ooohhh
 Em Em C G  4x

                     Em Em C G 
Was it something I said, something I did, it must be over my head
                       Em Em C C 
I didn't quite understand it, now it's out of my hands, it's out of my hands

          G G D D  
When it feels like life has gotten out of control,
           Em Em C C  
when it feels like much too much to hold
           G G D  
When it feels like too much to understand
 B7 Em C G  
Know, that's out of your hands, out of your hands, out of your hands
 B7 Em C G  
Know, that's out of your hands, out of your hands, out of your hands

ooohhh...
 Em Em C G  4x