Tag: coulton

Still Alive Tabs by Jonathan Coulton V7

 ****ALL CREDIT GOES TO CHARGERFAN96 I ONLY REFORMATTED IT TO REMOVE THE SECOND 
GUITAR AND MAKE THE MELODY EASIER TO READ CONTINUOUSLY****  

 This was a tri-umph        I’m mak-ing a note here:  huge suc-cess

e|--3----2--0--0---2---------------3---2--0--0----2-----------0-------------|
B|-------------------------------------------------------3------------------|
G|-----------------------------2----------------------------------2---------|
D|--------------------------------------------------------------------------|
A|--------------------------------------------------------------------------|
E|--------------------------------------------------------------------------|


   It’s hard to ov-er state my sat-is-fac-tion

e|-------0---2--3--0------------0----------2--------------------------------|
B|----------------------2---3-----------------------------------------------|
G|--2------------------------------2---2------------------------------------|
D|--------------------------------------------------------------------------|
A|--------------------------------------------------------------------------|
E|--------------------------------------------------------------------------|


   Ap-er-ture Sci-ence          We do what we must   be-cause   we can

e|-3--2---0----0---2------------3---2---0---0-----2----------0--------------|
B|-----------------------------------------------------3--------------------|
G|---------------------------2-----------------------------------2----------|
D|--------------------------------------------------------------------------|
A|--------------------------------------------------------------------------|
E|--------------------------------------------------------------------------|


   For the good of all of us    Ex-cept the ones who are dead

e|--0---2---3---0---------0--------------0---1----0-------------------------|
B|------------------2--3------------3-----------------3---1-----------------|
G|------------------------------2-------------------------------------------|
D|--------------------------------------------------------------------------|
A|--------------------------------------------------------------------------|
E|--------------------------------------------------------------------------|


  [CHORUS]

   But there’s no sense cry-ing ov-er ev-ry mis-take

e|------------------1----0--------------------------------------------------|
B|-------------1-------------3--3--1--3--1---1---1--------------------------|
G|--2----3------------------------------------------------------------------|
D|--------------------------------------------------------------------------|
A|--------------------------------------------------------------------------|
E|--------------------------------------------------------------------------|


   You just keep on try-ing till you run out of cake

e|---------------1---3---1---0------------0--1---1--------------------------|
B|-----------1--------------------3---3-------------------------------------|
G|--2---3-------------------------------------------------------------------|
D|--------------------------------------------------------------------------|
A|--------------------------------------------------------------------------|
E|--------------------------------------------------------------------------|


   And the sci-ence gets done   And you make a neat gun

e|--3---5---6---6----5----3------1---3---5---5--3----1----------------------|
B|--------------------------------------------------------------------------|
G|--------------------------------------------------------------------------|
D|--------------------------------------------------------------------------|
A|--------------------------------------------------------------------------|
E|--------------------------------------------------------------------------|


   For the peo-ple who are still a-live

e|-----------