Tag: crown

You Should See Me In A Crown chords by Billie Eilish

Verse          Chorus
----------     ----------
Em  02200x     E5  022xxx
G   32000x     G5  355xxx


Capo 4th fret


[Intro]
Em  G


[Verse 1]
Em
Bite my tongue, bide my time, wearing a warning sign
G
Wait 'til the world is mine
Em
Visions I vandalize, cold in my kingdom size
G
Fell for these ocean eyes


[Chorus 1]
                       E5
You should see me in a crown
                           E5
I'm gonna run this nothing town, watch me make 'em bow
E5  G5  E5  G5  E5
One by  one by  one
E5  G5  E5  G5
One by  one by

                       E5
You should see me in a crown
                            E5
Your silence is my favorite sound, watch me make 'em bow
E5  G5  E5  G5  E5
One by  one by  one
E5  G5  E5  G5  N.C.
One by  one by  one


[Verse 2]
Em
Count my cards, watch them fall, blood on a marble wall
G                        N.C.
I like the way they all, scream
Em
Tell me which one is worse, living or dying first
G
Sleeping inside a hearse (I don't dream)


[Bridge]
Em
   You say, come over baby
  G
I think you're pretty
Em
   I'm okay, I'm not your baby
       G
If you think I'm pretty


[Chorus 2]
                       E5
You should see me in a crown
                           E5
I'm gonna run this nothing town, watch me make 'em bow
E5  G5  E5  G5  E5
One by  one by  one
E5  G5  E5  G5
One by  one by

                       E5
You should see me in a crown
                            E5
Your silence is my favorite sound, watch me make 'em bow
E5  G5  E5  G5  E5
One by  one by  one
E5  G5  E5  G5  E5
One by  one by  one


[Interlude]
E5  E5
E5  G5  E5  G5
E5  G5  E5  G5


[Chorus 3]
E5
Crown
                           E5
I'm gonna run this nothing town, watch me make 'em bow
E5  G5  E5  G5  E5
One by  one by  one
E5  G5  E5  G5
One by  one by

                       E5
You should see me in a crown (you should see me, see me)
                            E5
Your silence is my favorite sound (you should see me, see me), watch me make 'em bow
E5  G5  E5  G5  E5
One by  one by  one
E5  G5  E5  G5  E5
One by  one by  one

Crown Him With Many Crowns chords – Hymnal

 CROWN HIM WITH MANY CROWNS
Words by Matthew Bridges, 1800-1894 and Godfrey Thring, 1823-1903
Music by George J. Elvey, 1816-1893

   A:x02220
  A7:x02020
  Bm:x2443x
   D:xx0232
   E:022100
Esus:022200
   G:320003


Verse1:

 D Bm G                 
Crown Him with many crowns
      D G A7 
The Lamb upon His throne
       D Bm E A          
Hark how the heavenly anthem drowns 
       A Esus A 
All music but  its own
   D G     
Awake, my soul, and sing 
     E A 
Of Him who died for thee
      D G A7 D                    
And hail Him as thy matchless King 
          G A7 D 
Through all e - ter – ni - ty


Verse 2:
Crown Him the Lord of life
Who triumphed o’er the grave
And rose victorious in the strife
For those He came to save
His glories now we sing
Who died and rose on high
Who died eternal life to bring
And lives that death may die

Verse 3:
Crown Him the Lord of peace
Whose power a scepter sways
From pole to pole, that wars may cease
And all be prayer and praise
His reign shall know no end
And round His pierced feet
Fair flowers of paradise extend    
Their fragrance ever sweet.

Verse 4:
Crown Him the Lord of love
Behold His hands and side
Those wounds yet visible above 
In beauty glorified
All hail Redeemer, hail
For Thou hast died for me
Thy praise and glory shall not fail
Throughout eternity

Memories Of A Broken Heart Acoustic chords – Crown The Empire V3

 From what I can tell this is the way Crown The Empire plays it in their live acoustic version.
The video can be found here: http://www.youtube.com/watch?v=dkOaQdVD2Yg 

(The  Bridge, "you think this is the end your wrong," part of the song and 3rd chorus after 
aren't actually played in the live acoustic version so that part is up for speculation or can be ignored.)

Standard Tuning
Barre Chords


    Dm F 
As I stare into these ruins made by man
     Gm A# 
I tremble as I realize it's the end
          Dm F 
More and more I wonder what we could have done
     Gm A# 
But instead we wage a war that can't be won
      Gm A# 
Yeah instead we wage a war that can't be won


 Dm F 
I stand on the ash of all I've ever loved
                Gm 
Memories of a broken heart
          A#             
Now I'm alone in the dark.
 Dm F 
I know there's a way out when all hope is gone
                    Gm 
Find your light in a new dawn
                 A# Dm A# 
But there's no way to do this on our own.
 F C 
Whoa


    Dm 
I search for solace in this waste That I once called home
    A# F 
But my attempts of piecing life together leaves me alone
   
I can't repair what's been done
    C 
When the sky is as black as the ground that I walk on
 Dm A# 
And I can't give up on this  (And I can't give up on this)
 F 
I have to wonder what we could have done
 C                  
I have to (fuckin) wonder

       Dm A# 
But instead we wage a war that can't be won
       F C 
But instead we wage a war that can't be won


 Dm F 
I stand on the ash of all I've ever loved
                Gm 
Memories of a broken heart
          A#             
Now I'm alone in the dark.
 Dm F 
I know there's a way out when all hope is gone
                    Gm 
Find your light in a new dawn
                 A# Dm A# 
But there's no way to do this on our own.
 F C 
whoa

(live version ends here on Dm)



 Dm 
You think that this is the end?

You're wrong
 F 
You think that this is the end?

You're wrong
 Gm 
You think that this is the end?

You're wrong
 A#                       
This is the start of a new generation


 Dm F 
I stand on the ash of all I've ever loved
                Gm 
Memories of a broken heart
          A#             
Now I'm alone in the dark.
 Dm F 
I know there's a way out when all hope is gone
                    Gm 
Find your light in a new dawn
                 A# Dm A#  
But there's no way to do this on our own.
 F C 
Whoa
 Dm  
(Strum once)

Bloodsuckers Tabs by Capture The Crown

 Song: Bloodsuckers
Artist: Capture The Crown 
 Live Life EP
Drop B Tuning
B F# B E G# C#

Most of this maybe not right, I tried my best

(0:01)-(0:07)
|------------------------------------------------------------------------|
|------------------------------------------------------------------------|
|------------------------------------------------------------------------|
|--0~~~~~~~~~~~~---------------------------------------------------------|
|--0~~~~~~~~~~~~---------------------------------------------------------|
|--0~~~~~~~~~~~~---------------------------------------------------------|

(0:08)-(0:17)
|--------------------------------------------------------------------------|
|--------------------------------------------------------------------------|
|--------------------------------------------------------------------------|
|--------------------------------------------------------------------------|
|--------------------------------------------------------------------------|
|-1b-1--00-0--3--00-0-1-00-0-0-00-0-0---00-0-1---00-0-3--0--0--1---00-00-0-|

(0:18)-(0:33)                                     play on the first repeat
|-------------------------------------------------------------------|-------|
|-------------------------------------------------------------------|-------|
|-------------------------------------------------------------------|-------|
|-------------------------------------------------------------------|-------|
|-1-00-0--3--00-0-1-00-0-0-00-0-0--00-0-1--00-0-3--0---0--1-00-00-0-|-------|
|-1-00-0--3--00-0-1-00-0-0-00-0-0--00-0-1--00-0-3--0---0--1-00-00-0-|--1b---|

(0:34)-(0:50)
|-----------------------------------------------------------------|
|-----------------------------------------------------------------|
|-----------------------------------------------------------------|x2
|-----------------------------------------------------------------|
|-----------------------------------------------------------------|
|---1--00-0--3--00-0-1--00-0-0----1-00-0--3-00-0-1--00-00-0---3*--|

(0:51)-(1:07) repeat
|-------------------------------------------------------------------------|
|-------------------------------------------------------------------------|
|-------------------------------------------------------------------------|
|-------------------------------------------------------------------------|
|-000--000---0000---000--000-------000--000----0000----000--000-----------|
|-000--000---0000---000--000-------000--000----0000----000--000---3*------|
  ...  ...   ....   ...  ...       ...  ...    ....    ...  ...

(1:08)- (1:15)
Break

(1:16)-(1:32)
|---------------------------------------------------------------------------|
|---------------------------------------------------------------------------|
|---------------------------------------------------------------------------|
|---------------------------------------------------------------------------|
|5555-8888-33333333-5555-8888-33333333-5555-8888-33333333-00000000000-333333|
|5555-8888-33333333-5555-8888-33333333-5555-8888-33333333-00000000000-333333|

(1:33)-(1:40)
|-------------------------------------------------------------------------|
|-------------------------------------------------------------------------|
|-------------------------------------------------------------------------|
|-------------------------------------------------------------------------|
|--1--00-0--3--00-0-1---00-0-0---00-0-0--00-0-1---00-0-3--00-0-1--00-00-0-|
|--1--00-0--3--00-0-1---00-0-0---00-0-0--00-0-1---00-0-3--00-0-1--00-00-0-|

(1:40)-(1:57) repeat
|------------------------------------------------------------------|
|------------------------------------------------------------------|
|------------------------------------------------------------------|
|------------------------------------------------------------------|
|-------------------------------------------------

Victors Crown chords – Darlene Zschech V3

 Victors Crown
In key of D Christian Estoesta British School Manila .
(Church Of The Living God)-Manila
[INTRO]: G D A Em 

V1
 D 
You are always fighting for us
 Bm 
Heaven's angels all around
 Em 
My delight is found in knowing
 A 
That You wear the Victor's crown

 Bm 
You're my help and my defender
 D 
You're my Saviour and my friend
 Em 
By Your grace I live and breathe
 A 
To worship You

V2
 D 
At the mention of Your greatness
 Bm 
In Your Name I will bow down
 Em 
In Your presence fear is silent
 A 
For You wear the Victor's crown

 Bm A/C# 
Let Your glory fill this temple
 D 
Let Your power overflow
 Em                       
By Your grace I live and breathe
 A 
To worship You

[CHORUS]
 G A D 
Hallelujah
 G D 
You have overcome
 A Em 
You have overcome
 G A Bm 
Hallelujah
 Em A 
Jesus You have overcome the world

[INTRO]
V3
 D 
You are ever interceding
 Bm 
As the lost become the found
 Em 
You can never be defeated
 A 
For You wear the Victor's crown.

 Bm A/C# 
You are Jesus the Messiah
 D 
You're the Hope of all the world
 Em Em/C# 
By Your grace I live and breathe
 A 
To worship You

[CHORUS]
[INTRO]

 G D 
Every high thing must come down
 A Em 
Every stronghold shall be broken
 G D 
You wear the Victor's crown
 A 
You overcome
You overcome

 Bm A/C# 
At the cross the work was finished
 D 
You were buried in the ground
 Em 
But the grave could not contain You
 G D 
For You wear the Victor's crown

Johnny Ringo Tabs by Crown The Empire V2

 Johnny Ringo Tabs - Crown the Empire
Tuning Drop c#
(Just Tabs so people can learn if they want great song!)

Intro 
(0.00-0.20 onward) 

D#|---------------------------------------------------------------------|
A#|---------------------------------------------------------------------|
F#|---------------------------------------------------------------------|(x2)  
C#|--0-----0-------8-8---7-7---3----5-----5-------7-7-7-7--2-2-2-2--0~--| 
G#|--0(x5)-0(x5)---8-8---7-7---3----5(x5)-5(x5)---7-7-7-7--2-2-2-2--0~--|
C#|--0-----0-------8-8---7-7---3----5-----5-------7-7-7-7--2-2-2-2--0~--|

Verse
(0.35-0.54)

(drum/Vocal fill no guitar)

Chorus 
(0.55-1.17) 

D#|--------------------------------------------------------------------|
A#|--------------------------------------------------------------------|
F#|--------------------------------------------------------------------| (x2)
C#|---0--------8-------5-----------------------------------------------|
G#|---0(x12)---8(x6)---5(x6)-------------------------------------------|
C#|---0--------8-------5-----------------------------------------------|

D#|-------------------------------------------------------------------------|
A#|-------------------------------------------------------------------------|
F#|-------------------------------------------------------------------------|
C#|--0-----0-------8-8---7-7---3-----5------5--------7-7-7-7--2-2-2-2---0~--|
G#|--0(x5)-0(x5)---8-8---7-7---3-----5(x5)--5(x5)----7-7-7-7--2-2-2-2---0~--|
C#|--0-----0-------8-8---7-7---3-----5------5--------7-7-7-7--2-2-2-2---0~--|

Verse 
(1.18-1.33)

(drum/Vocal fill no guitar)

Bridge 
(1.34-1.52)

D#|-------------------------------------------------------------------------|
A#|-------------------------------------------------------------------------|
F#|-------------------------------------------------------------------------|
C#|---0-----------11---------8----------11----------------------------------|
G#|---0(x12)------11(x12)----8(x12)-----11(x10)-----------------------------|
C#|---0-----------11---------8----------11----------------------------------|

(short guitar riff) 

Chorus 2
(1.53-2.24) 
               (x2)
D#|[--------------------------]--------------------------------------|
A#|[--------------------------]--------------------------------------|
F#|[--------------------------]--------------------------------------| 
C#|[---0--------8-------5-----]---8-------5------0-------3-----------|
G#|[---0(x12)---8(x6)---5(x6)-]---8(x6)---5(x6)--0(x6)---3(x6)-------|
C#|[---0--------8-------5-----]---8-------5------0-------3-----------|

D#|----------------------------------------------------------------------|
A#|----------------------------------------------------------------------|
F#|----------------------------------------------------------------------|
C#|---8------5------0--------0~------------------------------------------|
G#|---8(x6)--5(x6)--0(x12)---0~------------------------------------------|
C#|---8------5------0--------0~------------------------------------------|

Bridge 2 Fill 
(2.25-2.43)

(No Guitar)

Breakdown
(2.44-3.14) 
(Bar strings and strum to pattern in song)  
D#|---------------------------------------------------------------------|
A#|---------------------------------------------------------------------|
F#|---------------------------------------------------------------------|
C#|---x-----------------------------------------------------------------|
G#|---x-----------------------------------------------------------------|
C#|---x-----------------------------------------------------------------|

Breakdown Fill 
(3.15-3.24)

Outro 
(3.25-4.19)

D#|--------------------------------------------------------------------|
A#|--------------------------------------------------------------------|
F#|--------------------------------------------------------------------| (x4)
C#|--0-------8-

The One You Feed chords – Crown The Empire

 Chords for The One You Feed by Crown The Empire. Standard tuning, no capo. Tabbed 
by lafawafa, hope you all enjoy!

Chords used:
 Bm  - 224432
 G  - 320003
 A  - 002220
 E  - 022100
-----------------------

Intro:  Bm G A  (x2)

Verse 1:

         Bm 
In the wake of my broken dreams
         G A 
In the dirt and the dust and the days that felt like weeks.
                             E 
I found the person that I'm meant to be

              Bm 
'Cuz when I feel like giving up
        G A 
When death was closing in, I shut my eyes
       E 
And black out the darkness with light from inside

Chorus:

             Bm      
I've given more than what I've got
             G 
I've given all of what I'm not
                    A E 
I've watched this war consume all that we could become
(Facing my fears in the dark)
          Bm 
But if I die before it's done
                    G 
Please take these words, my final thoughts
           A E 
The only way to shine your light is in the dark.
Never let life kill your spark

Replay Intro:  Bm G A  (x2)

Verse 2:

               Bm 
This is the fallout
Yeah it's the end of the world
                 G A 
Go spread the noise to everyone and let them all know you heard
            Bm 
A system meltdown
It's time we expose
 G A 
   The cause of chaos is our own

Chorus:

             Bm      
I've given more than what I've got
             G 
I've given all of what I'm not
                    A E 
I've watched this war consume all that we could become
(Facing my fears in the dark)
          Bm 
But if I die before it's done
                    G 
Please take these words, my final thoughts
           A E 
The only way to shine your light is in the dark.
Never let life kill your spark

Bridge:

 Bm 
Never let life kill your spark
 G 
Never let life kill your spark
 A 
Facing my fears in the dark

(Single strums here)
             Bm      
I've given more than what I've got
             G 
I've given all of what I'm not
                    A E 
I've watched this war consume all that we could become
          Bm 
But if I die before it's done
                    G 
Please take these words, my final thoughts
           A E 
The only way to shine your light is in the dark.
Never let life kill your spark

Outro:

Replay Intro:  Bm G A  (x2)
 A Bm Bm 
Never let life kill your spark

Crown Him Majesty chords – Praise And Worship

 Verse 1
 Am F2 
Crown Him with many crowns
     C/E Gsus 
The Lamb upon His throne
       Am Am/G D/F# G 
Hark! How the heavenly anthem drowns
     G D Gsus 
All music but its own
  C/E F2 
Awake, my soul and sing
    D Gsus  -  G 
Of Him who died for me
     Am Am/G F2 C/E 
And hail Him as thy matchless King
         Dm7 Gsus C 
Through all eternity

Chorus
 F2 C/E 
Majesty, Lord of all
     F2 Am Gsus 
Let every throne, before Him fall
     F2 
The King of Kings
   C/E 
O come adore
     Dm7 C/E Gsus C 
Our God who reigns forevermore

Verse 2
 Am F2 
Crown Him the Lord of life
     C/E Gsus 
Who triumphed o'er the grave
     Am Am/G D/F# G 
And rose victorious in the strife
     G D Gsus 
For those He came to save
     C/E F2 
His glories now we sing
     D Gsus  -  G 
Who died and rose on high
     Am Am/G F2 C/E 
Who died eternal life to bring
     Dm7 Gsus C 
And lives that death may die

Chorus
 F2 C/E 
Majesty, Lord of all
     F2 Am Gsus 
Let every throne, before Him fall
     F2 
The King of Kings
   C/E 
O come adore
     Dm7 C/E Gsus C 
Our God who reigns forevermore

Forevermore

Bridge
     F2 C/E Gsus 
All hail, Redeemer, hail
     C C/E F2 
For He has died for me
     F2 C Am Gsus 
His praise and glory shall not fail
        F2 Gsus C 
Throughout eternity
     F2 C/E Gsus 
All hail, Redeemer, hail
     C C/E F2 
For He has died for me
     F2 C Am Gsus 
His praise and glory shall not fail
        F2 Gsus C G/B 
Throughout eternity

Chorus
 F2 C/E 
Majesty! Lord of all
     F2 Am Gsus 
Let every throne, before Him fall
     F2 
The King of Kings
   C/E 
O come adore
     Dm7 C/E Gsus C 
Our God who reigns forevermore
 G2 D/F# 
Majesty! Lord of all
     G2 Bm Asus 
Let every throne, before Him fall
     G2 
The King of Kings
   D/F# 
O come adore
     Em7 D/F# Asus D 
Our God who reigns forevermore
        Em7 D/F# Asus D 
Praise God who reigns forevermore
            Em7 D/F# Asus D 
You’re the God who reigns forevermore

Broken Crown Tabs by Mumford And Sons V4

 Broken Crown - Mumford and Sons
: James Walters
Email: Jojomcfee1

I tabbed this song using parts of other tabs and by ear to make it playable on an 
acoustic guitar and also standard tuning, I'm pretty sure everything is Correct. Please leave 
comments and suggestions.

Tuning: Standard


Intro:

   Dm                              C
|--1----1--3----3--5----5--5----5--0----0--1----1--3----3--3----3----------|
|-----3-------3-------3-------3-------1-------1-------1-------1------------|
|--------------------------------------------------------------------------|
|--0-0-0---0-0-0---0-0-0---0-0-0-------------------------------------------|
|----------------------------------3-3-3---3-3-3---3-3-3---3-3-3-----------|
|--------------------------------------------------------------------------|


   Bb             Am                          Dm
|---------------------------------------------1----1--1----1---------------|
|--3----3-6-5-3-1-1h3---3--1----1-0--2--3—0-----3-------3------------------|
|-----3---------------2-------2--------------------------------------------|
|---------------------------------------------0-0-0---0-0-0----------------|
|--1-1-1----------0--0-0---0-0-0-------------------------------------------|
|---------------------------------0--1--3-0--------------------------------|

Verse 1

   Dm       C                Dm
|--1-----1--0-----0-----------1-----1------------------------------------------|
|------3--------1--------—-------3---------------------------------------------|
|---------------------2----0---------------------------------------------------|
|--0—-0--0--------------------0—-0--0------------------------------------------|x2
|-----------3—-3--3------------------------------------------------------------|
|---------------------0----0---------------------------------------------------|
   Touch my mouth and hold my tongue
   I will not be Your chosen one

   Bb                            Dm
|----------------------------------1----1--1----1--1----1--1----1----------|
|--3----3--3----3--3----3--3---—3-----3-------3-------3-------3------------|
|-----3-------3-------3-------3--------------------------------------------|
|----—------------------------—----0-0-0---0-0-0---0-0-0---0-0-0-----------|x2
|--1-1-1—--1-1-1---1-1-1---1-1-1-------------------------------------------|
|--------------------------------------------------------------------------|
   I'll be home safely tucked away
   You can't tempt me if...the day

   Dm       C
|--1-----1--0-----0-----------1-----1------------------------------------------|
|------3--------1--------—--------3--------------------------------------------|
|---------------------2----0---------------------------------------------------|
|--0—-0--0--------------------0—-0--0------------------------------------------|x2
|-----------3—-3--3------------------------------------------------------------|
|---------------------0----0---------------------------------------------------|
   The pull on my flesh was just too strong
   It stifled the choice and the air in my lungs

Bb                               Dm
|----------------------------------1----1--1----1--1----1--1----1----------|
|--3----3--3----3--3----3--3---—3-----3-------3-------3-------3------------|
|-----3-------3-------3-------3--------------------------------------------|
|----—------------------------—----0-0-0---0-0-0---0-0-0---0-0-0-----------|x2
|--1-1-1—--1-1-1---1-1-1---1-1-1-------------------------------------------|
|--------------------------------------------------------------------------|
   Better not to breathe than to breathe a lie
   Cause when I open my body I breathe alive

Repeat Intro

Verse
               Bb    Dm C Dm  C    Dm
    I will not speak ooooooof your sin
               Bb  Dm C Dm  C   Dm
    There was a way oooooout for him
               Bb Dm C Dm C  Dm
    The mirror shooo

Memories Of A Broken Heart Acoustic chords – Crown The Empire V2

 This is how Crown The Empire actually plays Memories of a Broken Heart on an 
acoustic guitar, shown when they played acoustic shows throughout 2013 while on 
tour. I know I already have a chord tab by the exact name, but that was actually 
chords to the original song, not an acoustic rendition.  lafawafa, hope you all enjoy! 

If you want the timing, strum pattern, etc. a reference video is here:
http://www.youtube.com/watch?v=tqc_vOf190I. Palm muting the chords at the end of 
the second verse ("But instead we wage a war that can't be won") is optional, but 
recommended for accuracy.

Chords (all barre chords):
 Dm  - 557765
 F  - 133211
 G  - 355433
 Bb  - 688766
 C  - 335553

Tuning: Drop B
-----------------------------

Verse 1:

       Dm F 
As I stare into these ruins made by man
      G Bb 
I tremble as I realize it's the end
           Dm F 
More and more I wonder what we could have done
        G Bb 
But instead we wage a war that can't be won
         G Bb 
Yeah instead we wage a war that can't be won

Chorus:

 Dm F 
   I stand on the ash of all I've ever loved
                 G 
Memories of a broken heart
          Bb 
Now I'm alone in the dark.

 Dm F 
   I know there's a way out when all hope is gone
                    G 
Find your light in a new dawn
                Bb Dm Bb 
But there's no way to do this on our own
 F C 
Own

Verse 2:
                Dm 
I search for solace in this waste that I once called home
           Bb F 
But my attempts of piecing life together leaves me alone
                                           C 
I can't repair what's been done when the sky is as black as the ground that I walk on

 Dm Bb 
   But I can't give up on this

(But I can't give up on this)
 F 
   I have to wonder what we could have done
 C 
   I have to wonder

       Dm Bb 
But instead we wage a war that can't be won
       F C  (play progressively louder as you 
transition into the chorus if you palm muted this part)
But instead we wage a war that can't be won

Chorus:

 Dm F 
   I stand on the ash of all I've ever loved
                 G 
Memories of a broken heart
          Bb 
Now I'm alone in the dark.

 Dm F 
   I know there's a way out when all hope is gone
                    G 
Find your light in a new dawn
                Bb Dm Bb 
But there's no way to do this on our own
 F C 
Own

Strum Dm once to finish it!

There Will Be No Christmas chords – Crown The Empire V2

 Chords used:  G Bb Em Am C D Eb G Bb 
Sometimes I wish we'd never spoken
 G Bb 
Sometimes I wish we'd never met
 Em Am 
Sometimes I wish our love had never had a chance to start
     C                           ( D )
And sometimes I wish I had you back

 G Bb 
I wish this love had been in autumn
 G Bb 
That way it'd float off in the breeze
 Em 
Instead this dark December
     Am C 
I'm all alone and colder than I've ever been
               D 
And since you left

                  G 
There will be no Christmas
                  Bb 
At least not for me
               Em D C 
This year I'm all alone waiting for the spring
                  G 
There will be no Christmas
              Bb 
No Santa, no sleigh
                     Em D C 
But I hope that you know
                 Am 
That through it all 
                    Eb G 
I still wish you a happy holiday

 G Bb G Bb Em Am C D G 
There will be no Christmas
                  Bb 
At least not for me
               Em D C 
This year I'm all alone waiting for the spring
                  G 
There will be no Christmas
              Bb 
No Santa, no sleigh
                 Em D C 
I hope that you know
                 Am 
That through it all
                    Eb Am 
I still wish you a happy holiday
 Eb D G 
Holiday oh, oh, oh