Tag: cruel

Cruel To Be Kind Tabs – Nick Lowe

 CRUEL TO BE KIND

As recorded by Nick Lowe
(From the 1979 Album LABOUR OF LUST)

Words and Music by Nick Lowe & Ian Gomm

 Slowhand


Gtr I (E A D G B E) - 'Billy Bremner - Acoustic Guitar'
Gtr II (E A D G B E) - 'Dave Edmunds - Electric Guitar'


   Intro
    Q=134                                          1.
    C               G/D             F/C             G/D
   4/4
    Gtr I (Ac. Gtr.)
    Q  Q  E E E E   Q  Q  E E E E   Q  Q  E E E E   E E Q  E E E E
||--0--0--0-0-0-0-|---------------|---------------|-----------------||
||o-1--1--1-1-1-1-|-3--3--3-3-3-3-|-1--1--1-1-1-1-|-3-3-3--3-3-3-3-o||
||--0--0--0-0-0-0-|-4--4--4-4-4-4-|-2--2--2-2-2-2-|-4-4-4--4-4-4-4--||
||--2--2--2-2-2-2-|-5--5--5-5-5-5-|-3--3--3-3-3-3-|-5-5-5--5-5-5-5--||
||o-3--3--3-3-3-3-|-5--5--5-5-5-5-|-3--3--3-3-3-3-|-5-5-5--5-5-5-5-o||
||----------------|---------------|---------------|-----------------||


                                      1st - 3rd Verses
  2.
                                   $
                                       C               Em
  E E E E E E E E   E E E E E E Q      Q  Q  E E E E   Q  Q  E E E E
|-----------------|----------------||--0--0--0-0-0-0-|-0--0--0-0-0-0-|
|-3-3-3-3-3-3-3-3-|-3-3-3-3-3-3-3--||o-1--1--1-1-1-1-|-0--0--0-0-0-0-|
|-4-4-4-4-4-4-4-4-|-4-4-4-4-4-4-4--||--0--0--0-0-0-0-|-0--0--0-0-0-0-|
|-5-5-5-5-5-5-5-5-|-5-5-5-5-5-5-5--||--2--2--2-2-2-2-|-2--2--2-2-2-2-|
|-5-5-5-5-5-5-5-5-|-5-5-5-5-5-5-5--||o-3--3--3-3-3-3-|-2--2--2-2-2-2-|
|-----------------|----------------||----------------|-0--0--0-0-0-0-|
|
|                                  Gtr II (El. Gtr.)
| W                 W                  W               W
|-----------------|----------------||--0-------------|---------------|
|-----------------|----------------||o-1-------------|---------------|
|-----------------|----------------||--0-------------|---------------|
|-----------------|----------------||----------------|---------------|
|-----------------|----------------||o---------------|---------------|
|-----------------|----------------||----------------|---------------|


  F/C                               C               Em
  Q  Q  E E E E   E E E E E E E E   E E Q  E E Q    E E Q  E E Q
|---------------|-----------------|-0-0-0--0-0-0--|-0-0-0--0-0-0--|
|-1--1--1-1-1-1-|-1-1-1-1-1-1-1-1-|-1-1-1--1-1-1--|-0-0-0--0-0-0--|
|-2--2--2-2-2-2-|-2-2-2-2-2-2-2-2-|-0-0-0--0-0-0--|-0-0-0--0-0-0--|
|-3--3--3-3-3-3-|-3-3-3-3-3-3-3-3-|-2-2-2--2-2-2--|-2-2-2--2-2-2--|
|-3--3--3-3-3-3-|-3-3-3-3-3-3-3-3-|-3-3-3--3-3-3--|-2-2-2--2-2-2--|
|---------------|-----------------|---------------|-0-0-0--0-0-0--|


  F/C    Em       Dm             F/C              Em
  Q  E E Q  E E   Q  Q  E E Q    E E Q  E E E E   E E Q  E E E E
|--------0--0-0-|-1--1--1-1-1--|----------------|-0-0-0--0-0-0-0-|
|-1--1-1-0--0-0-|-3--3--3-3-3--|-1-1-1--1-1-1-1-|-0-0-0--0-0-0-0-|
|-2--2-2-0--0-0-|-2--2--2-2-2--|-2-2-2--2-2-2-2-|-0-0-0--0-0-0-0-|
|-3--3-3-2--2-2-|-0--0--0-0-0--|-3-3-3--3-3-3-3-|-2-2-2--2-2-2-2-|
|-3--3-3-2--2-2-|--------------|-3-3-3--3-3-3-3-|-2-2-2--2-2-2-2-|
|--------0--0-0-|--------------|----------------|-0-0-0--0-0-0-0-|


                                  Chorus
  F/C             G/D              F/C     G/D       Em      Am
  Q  E E E E Q    E E Q  E E Q     E E E E E E E E   E E E E E E E E
|---------------|---------------||-----------------|-0-0-0-0-0-0-0-0-|
|-1--1-1-1-1-1--|-3-3-3--3-3-3--||-1-1-1-1-3-3-3-3-|-0-0-0-0-1-1-1-1-|
|-2--2-2-2-2-2--|-4-4-4--4-4-4--||-2-2-2-2-4-4-4-4-|-0-0-0-0-2-2-2-2-|
|-3--3-3-3-3-3--|-5-5-5--5-5-5--||-3-3-3-3-5-5-5-5-|-2-2-2-2-2-2-2-2-|
|-3--3-3-3-3-3--|-5-5-5--5-5-5--||-3-3-3-3-5-5-5-5-|-2-2-2-2-0-0-0-0-|
|---------------|---------------||-----------------|-0-0-0-0---------|


  F/C     G/D       Em      Am        F/C     G/D       Em      Am
  E E E E E E E E   E E E E E E E E   E E E E E E E E   E E E E E E E E
|-----------------|-0-0-0-0-0-0-0-0-|-----------------|-0-0-0-0-0-0-0-0-|
|-1-1-1-1-3-3-3-3-|-0-0-0-0-1-1

Hello Cruel World chords – Klinger

 Klinger - Hello Cruel World Chords

http://en.wikipedia.org/wiki/Klinger_(band)
https://www.facebook.com/klingerband



Verse:  C G Am F     Riff          Chorus:  C G Am F 
e|---------------------------------------------3------1---------|
B|------------------------------------------1-----2---1---------|
G|-----------3------------------------------------3---2---------|
D|-----2-----3--------3-3-3-3/5-5-----------2-----3---3---------|
A|-----3--2------3----3-3-3-3/5-5-----------3--2------3---------|
E|--------3------1----1-1-1-1/3-3--------------3------1---------|
                      D u D u D u


 C G 
From St Kilda to Watsonia North
    Am F C  
is fourteen hours by public transport 
     G Am  riff
But worth it to be with you 
 C G 
Treading water's taking all my breath 
      Am F C 
Like borrowed sheets on borrowed beds 
     G Am  riff
Too small for me and you 


     C G Am F 
And I don't know what you've been thinking 
 C G Am F 
Gotta know it, I gotta know it 
 C G Am F C 
Hello cruel world I'm taking over now 
 C Am F 
Who's a lucky boy? 


 C G 
From St Kilda to Watsonia North 
    Am F C 
is thirteen hours with my thoughts 
    G Am    riff
Of hands and plans and you 
 C G 
There's sensations that I'll never know 
      Am F C 
Like Split Enz records on my stereo 
         G Am    riff
And the time I spend with you 


     C G Am F 
And I don't know what you've been thinking 
 C G Am F 
Gotta know it, I gotta know it 
    C G Am F 
My head feels like my mouth's been drinking 
 C G Am F 
Gotta know it, I gotta know it 
   C G Am F C 
Hello cruel world I'm taking over now 
   C G Am F C 
Hello cruel world I'm taking over now 
 C G Am 
Don't tell me I've got to keep it down 
   C G Am F C 
Hello cruel world I'm taking over now 
         G F 
Who's a lucky boy? 


 Am F 
Television never made me mad (mad)
 G Am F          
A distraction from the future that I'll never have (never have) 


   C G Am F C 
Hello cruel world I'm taking over now 
   C G Am F C 
Hello cruel world I'm taking over now 
 C G Am 
Don't tell me I've got to keep it down 
   C G Am F C 
Hello cruel world I'm taking over now 
 C G F 
Who's a lucky boy?

Cruel chords – Daniel Belanger

 ##########################################
Chanson : Cruel
Artiste : Bélanger, Daniel
Transcription par : 
Fichier Provenant de : Partitions101!
###########################################
CRUEL (IL FAIT FROID,ON GÈLE) 
Daniel Bélanger
=======================================


ACCORDS (Capot 2ème position):

       ( F#m7 )( F#m6 )( F#m )( B7sus4 )( C#7 (-10))( A ) ( B ) ( E ) ( E5 ) ( F#5 )
         Em7 Em6 Em A7sus4 B7 (-10)    G A D D5 E5 
1(E)>-|-2---|-2---|-2--|-5-----|-2-------|-5-|-2-|-4-|-2--|-2--|
2(B)>-|-5---|-4---|-2--|-5-----|-5-------|-2-|-4-|-5-|-2--|-2--|
3(G)>-|-2---|-2---|-2--|-2-----|-4-------|-2-|-4-|-4-|-9--|-11-|
4(D)>-|-4---|-4---|-4--|-4-----|-3-------|-2-|-4-|-2-|-9--|-11-|
5(A)>-|-4---|-4---|-4--|-2-----|-4-------|-4-|-2-|-2-|-7--|-9--|
6(E)>-|-2---|-2---|-2--|-2-----|-2-------|-5-|-2-|-2-|-2--|-2--|
*Les positions ne sont PAS relatives au capot.

 Em7 Em6 Em Em7 Em6 Em Em7 Em6 Em 
Il fait froid on gèle Décembre est une nuit insensée

 Em7 Em6 Em 
La terre brûlante donne au feu sa misère à brûler

 A7sus4 
Au Moyen-Orient on tire à vue sur les tapis volants

             Em7 Em6 Em 
L'Afrique immatricule la zibeline l'excluant du coup de la famine

    B7 (-10)                               A7sus4 
L'Amérique de plus belle s'indigne d'un chien fouillant les poubelles

               G A G D 
Il fait froid   on gèle   y a pas qu'l'hiver qui est cruel

 Em7 Em6 Em Em7 Em6 Em Em7 Em6 Em 
Farine à la pelle poudrerie et même grésil

    Em7 Em6 Em 
On n'a de la mer que le sel et une vague idée du Brésil

 A7sus4 
Dis mon frère dis-moi la cicatrice que t'as au bras

           Em7 Em6 Em 
Est-ce le fruit du hasard ou d'une agression tard le soir?

                   B7 (-10)                   A7sus4 
Oui c'est qu'à la sortie du métro un con a braqué son couteau

      G A G D     
Scalpel! Juste ciel! Y a pas qu'l'hiver qui est cruel

 D5 - E5 - D5 - E5 D5 - E5 - D5 - E5 D5 - E5 - D5 - E5 D5 - E5 - D5 - E5 Em7 Em6 Em 
Si le temps suit son cours et j'ai bien peur qu'il le suivra

    Em7 Em6 Em 
On ne fera plus de l'amour que notre sujet le plus délicat

    A7sus4 
On niera ce qu'il y a de guerre ce qu'il y a de sang et de misère

            Em7 Em6 Em 
Chanteront les canaris pour enterrer le bruit de l'artillerie

      B7 (-10)                                 A7sus4 
Mais pire que le mal de voir c'est cautionner le censeur et croire

            G A G D Em 
Qu'en vérité toute vérité n'est pas bonne à savoir

             G B G D 
Et il fait froid on gèle y a pas qu'l'hiver qui est cruel

 D5 - E5 - D

Cruel chords – The Head And The Heart

 -------------------------------------------------------------------------------
                             Cruel - The Head and the Heart
-------------------------------------------------------------------------------
: scarlberg25

Tuning: No Capo

Intro

 C  |  G  |  F  |  Am G  | 

 C G F              
I can't seem to find no peace anymore
      Am G 
I'll come out of this, out of this
 C G F       
Everywhere I turn, there seems to be another war
      Am G 
We'll come out of this, out of this

 C G F    
Nothing's gone right, I'm at my wits end
    Am G 
I swear I'll come out of this, out of this
 C G F     
But you're losing your mind with no hope in sight
      Am G 
I promise you out of this.

 C 
Like the wind in the trees
 G 
A cool summer breeze 
 F 
Like the curls in your hair
 Am G 
Everyone stares
 C 
At the hole in the wall
 G 
It's all in your head 
 F 
There's a memory there
 Am G 
All through the night


    Dm F C 
I tried being cruel, it's just not in me 
            G 
It's just not in you 
    Dm F C 
I tried being cruel, it's just not in me 
              G C G 
It's just not in you, it's just not in you  


Bridge:
  Dm 
Now that we've come to the end
  F 
Find that we're right where we began
  C 
Now that we've come to the end
  G 
Find that we're right where we began         x2


Outro:

    Dm F C 
I tried being cruel, it's just not in me 
           G 
It's just not in you 
    Dm F C 
I tried being cruel, it's just not in me 
           G 
It's just not in you 
    Dm F C 
I tried being cruel, it's just not in me 
           G 
It's just not in you 
    Dm F C 
I tried being cruel, it's just not in me 
           G C 
It's just not in you, it's just not in you