Tag: Curse

My Curse solo Tabs – The Afghan Whigs

 -------------------------------------------------------------------------------
                             My CURSE - The Afghan Whigs (Solo)
-------------------------------------------------------------------------------
: Dev Chopra


Tuning: Standard

e|---10-h-12----10-h-12--|-----------------------|---------------------------|
B|---10---------10-------|---10-----12--10--8----|----------------/8---------|
G|-----------------------|-11--11/12--11--9---7--|-------------------7-------|
D|-----------------------|-----------------------|---------------------------|
A|-----------------------|-----------------------|-7-7-7---------------------|
E|-----------------------|-----------------------|---------------------------|
         b 1/4                     b 1/4
e|----------------|-----------------------------|----------------------------|
B|---/12----------|-----------------------------|----------------------------|
G|------11-----12-|--12-11-9------11--------12--|-12-11-h-12-/14-/16--16-----|
D|----------------|----------12-9---------------|---------------------14-----|
A|----------------|-----------------------------|----------------------------|
E|----------------|-----------------------------|----------------------------|
                                               b 1/2 
e|--12-12-h-15-15-|-15-15-14-12----12-10-10-10-----10-10---------------------|
B|--12-12------15-|-15-15-------15-------------11----------------------------|
G|----------------|----------------------------------------------------------|
D|----------------|----------------------------------------------------------|
A|----------------|----------------------------------------------------------|
E|----------------|----------------------------------------------------------|
                   pb 1/4
e|--12-12-15-15-17---17------------------------------------------------------|
B|---------------------------------------------------------------------------|
G|---------------------------------------------------------------------------|
D|---------------------------------------------------------------------------|
A|---------------------------------------------------------------------------|
E|---------------------------------------------------------------------------|




************************************

| /   slide up
| \   slide down
| h   hammer-on
| p   pull-off
| ~   vibrato
| +   harmonic
| x   Mute note
| b   Bend
| pb  Pre-bend
| br  Bend release
| pbr Pre-bend release
| brb Bend release bend

************************************

A Gift A Curse Tabs – Emmure

 -------------------------------------------------------------------------------
                          Emmure - A Gift A Curse
-------------------------------------------------------------------------------
:Stanneverovic
 Stancookiecore

Tuning: DropA
So this is A Gift A Curse by Emmure, I tabbed it by ear, but it fits mostly ^^  when you
find find something wrong and know how its played correct, feel free to write down the
correction in the comments. (excause my bad English, I'm German :b)

0:00 - 0:07
e|------------|
B|------------|
G|------------|
D|------------|
A|------\12---|
E|----0-------|

0:07 - 0:35
e|------------------------------------------------------------------------|
B|------------------------------------------------------------------------|
G|------------------------------------------------------------------------|
D|--------7-3---3------7-3---3------7-3---3------7-3---0-1---7-3---0-1----|
A|------------5------------5------------5------------5-----------5--------|
E|---0------------0------------0------------0-----------------------------|
Repeat this two times.

0:35-0:38
e|------------------------------------------------------------------------|
B|------------------------------------------------------------------------|
G|------------------------------------------------------------------------|
D|------------------------------------------------------------------------|
A|------------------------------------------------------------------------|
E|---00000-00000-000-00000-00---------------------------------------------|


0:38 - 0:52
e|------------------------------------------------------------------------|
B|------------------------------------------------------------------------|
G|------------------------------------------------------------------------|
D|------------------------------------------------------------------------|
A|-00000-00000-00000-00000-00000000---------------------------------------|
E|-00000-00000-00000-00000-00000000---------------------------------------|
   ••••• ••••• ••••• ••••• ••••••••
Do this 4 times

0:52 - 1:04
e|----------------------------------------------------------------------------|
B|----------------------------------------------------------------------------|
G|----------------------------------------------------------------------------|
D|----------------------------------------------------------------------------|
A|----------------------------------------------------------------------------|
E|-0-00--0-00--0-00--00000---2×--0-00--0-00--0-00---2×------------------------|
   • ••  • ••  • ••  •••••       • ••  • ••  • ••
1:04 - 1:05
e|------------------------------------------------------------------------|
B|------------------------------------------------------------------------|
G|---------------55-------------------------------------------------------|
D|---------33----------3--------------------------------------------------|
A|------55----55----55----------------------------------------------------|
E|------------------------------------------------------------------------|
        •• •• •• •• ••

1:05 - 1:33
e|------------------------------------------------------------------------|
B|------------------------------------------------------------------------|
G|------------------------------------------------------------------------|
D|---10-----8-----7-------------------------------------------------------|
A|------7-8---8-7---8-----------------------------------------------------|
E|------------------------------------------------------------------------|
Listen how often you have to play this. :b

While playing this ↑, play this ↓
e|------------------------------------------------------------------------|
B|------------------------------------------------------------------------|
G|------------------------------------------------------------------------|
D|-----------------------------------------------------------------

25 Pills chords – 28th Day

  me, samuelgreen

The chords are ambigous at times but these should get the job done. I did not
tab the bassline (which is kind of awesome here), but if someone request it
from me I will do it (I only did the intro thing). Also I will apologize to
the author of this song in advance if I butchered the lyrics. :-)

Enjoy!

Bass intro
   | D           | G D   | D         | G D |
G|---------------------------------------------------------------------------|
D|---------------------------------------------------------------------------|
A|-5-5-5-5-5-5---2-2-----5----5-5-5-5-5-5---2-2-----5------------------------|
E|------------------3-3-3----------------------3-3-3-------------------------|

Intro
 D C D C 

Verse
 D 
Well you can call it madness
          C 
But it's just a curse
 D 
You can call it sadness
        C 
But it never hurts
 D 
I feel like leaping
        C 
to the door again 
 D  
My hands start creeping
        C 
For my only friend

prechorus
 D G D 

Chorus  
 D G D 
25 thrills you've never seen, man
                  G          
25 places you've never been

    D G D 
On 25 pills
             G D 
on 25 pills

 D C D C 

Verse
 D 
Well it's crazy fridays
 C 
But i don't have a hunch
 D 
when lazy sundays
 C 
It ain't worth that much
 D 
I grab the collar
 C 
Underneath your life
 D                            
I feel more dollars will 
 C 
make things right

prechorus
 D G D 

Chorus

 D G D 
25 thrills you've never seen, man
                  G          
25 places you've never been

    D G D 
On 25 pills
             G D 
on 25 pills

Reverb solo over these chords
 D C  x 4

Chorus

 D G D 
25 thrills you've never seen, man
                  G          
25 places you've never been

    D G D 
On 25 pills
             G D 
on 25 pills

 D C D C 

Verse

well the clouds keep rolling

In my tunes

among red ones and blue ones

Well it's easy to choose

and maybe the circus

will leave this town

And I'll be the only

Clown around

prechorus
 D G D 

Chorus  
 D G D 
25 thrills you've never seen, man
                  G          
25 places you've never been

    D G D 
On 25 pills
       G   (end on  D )
on 25 pills

If you like this, give a rating!

If you have corrections, post them in the comments!

My Curse chords – The Afghan Whigs

 Artist: The Afghan Whigs
 Gentleman (1993)


Intro:  Bm ,  Em  


Verse 1:   
 C Dsus4 Bm Em           
Hurt me baby
 C Dsus4 Bm 
Flinch so when you do 
 Em C Dsus4 Bm Em 
Your kisses scourge me.
 C Dsus4 Bm 
Hyssop in your perfume
 Em C Dsus4 Bm Em  
Oh, I do not fear you.
 C Dsus4 Bm 
And slave I only use
 Em C Dsus4 Bm Em C 
as a word to describe the special way, I feel for you


Interlude:  Bm Em C Dsus4  (x2)  Bm 


Verse 2:
 Em C Dsus4 Bm 
You look like me.
 Em C Dsus4 Bm 
And I look like no one else
 Em C Dsus4 Bm 
We need no other.
 Em C 
As long as we
 G D 
have ourselves.


Interlude:  C Dsus4 C Dsus4 


Bridge:
 G D 
But I won't cry about it
 C Dsus4 C Dsus4 
Every time you get obsessed and
 C Dsus4 C  (hold)
Every time I came undressed.


Guitar Solo:  Bm Em C Dsus4  (x4) Bm 
   
                     
Verse 3:
 Em C Dsus4 Bm 
All ugly thoughts are gone
 Em C Dsus4 Bm 
I'm sure we'll all be friends.
 Em C Dsus4 Bm 
I'll try to break your back
 Em C Dsus4 Bm 
You'll try to make amends
 Em C Dsus4 Bm 
Curse softly to me baby 
 Em C Dsus4 Bm 
and smother me in your love
 Em C    Ddud4
Temptation comes
 Bm Em C 
Not from Hell, but from above. And there's


Bridge:
 G Em 
blood on my teeth when I
 C Em 
bite my tongue to speak.  
         G Em 
Zip me down, kiss me there,
        C Dsus4    
I can smile now,        
 C Dsus4 C Dsus4 C Dsus4 
You won't find out, ever


Verse 1:
 C Dsus4 Bm Em           
Hurt me baby
 C Dsus4 Bm 
Flinch so when you do 
 Em C Dsus4 Bm Em 
Your kisses scourge me.
 C Dsus4 Bm 
Hyssop in your perfume
 Em C Dsus4 Bm Em  
Oh, I do not fear you.
 C Dsus4 Bm 
And slave I only use
 Em C Dsus4 Bm Em C 
as a word to describe the special way, I feel when I'm with you


Interlude:  G D C Dsus4 C Dsus  4


Outro:
 G D 
If I have to lie about it
 C Dsus4 C Dsus4 
every time I came undressed


Interlude:  G</sp

Kennedy Curse chords – The Maine

 Verse 1:

         G D Am 
Oh this feels like the Kennedy Curse
      G D Am 
And everything inside is dead
            G D Am 
I'm on the fence about what feels worse
         G D Am 
The one leaving or the one in bed


Verse 2:
      G D Am 
In a dream she's talking dirty to me
           G D Am 
Just in a language that I can't speak
          G D 
Then she kisses my scars
        Am C 
As she cuts out my heart
     G D Am 
And places it right on her sleeve


Verse 3:
            G D Am 
I'm having visions of the way it will end
       G D Am 
I can see it all now in my head
          G D 
You will cast the first stone
    Am C 
My sail will be torn
      G D Am 
I'll lose my vessel to a dark sea bed


Chorus:

 G D C        ( D )
Will someone just come and take my heart
 G D C         ( D )
Set it down in front of moving cars
 Am D 
 I feel nothing at all
    G D C 
So won't someone just come and take my heart
              Em 
And tear it apart


[not perfect yet]

Blessed With A Curse solo Tabs by Bring Me The Horizon V2

 Example in this video/Ejemplo en este vídeo: http://www.youtube.com/watch?v=Mx1sR-kIP78

Intro

e|-----------------------------------------------------------------|
B|-----------------------------------------------------------------|
G|--5--4--2~----5--7--12-------------------------------------------| 
D|--7--5--3~----7--9--14--8~---------------------------------------|
A|-----------------------------------------------------------------|
D|-----------------------------------------------------------------|

Solo in 3:07


e|----------------10-13-15-17^17-15p13-15\18-15~-------------------|
B|---------11-8~---------------------------------------------------|
G|---7-10----------------------------------------------------------|
D|-----------------------------------------------------------------|
A|-----------------------------------------------------------------|
D|-----------------------------------------------------------------|

e|-----------------------------------------------------------------|
B|-----------------------------------8-6-3-------------------------|
G|--------------------------------7^-------------------------------| 
D|--5-8-10^10^10^10p8-5~--333~-------------------------------------|
A|-----------------------------------------------------------------|
D|-----------------------------------------------------------------|

e|-----------------------------------------------------------------|
B|-----------------------------------------------------------------|
G|--5p3-5p3--------------------------------------------------------|
D|----------5p3-5p3------------------------------------------------|
A|------------------5p3-5p3--3p1-3p1-------------------------------|
D|-----------------------------------5p3 5p3-5~--------------------|


Riffs in 3:29
e|-----------------------------------------------------------------|
B|-----------------------------------------------------------------|
G|--7-10-12-12\15-12~----7-10-12\15-12-15-15\17-15-17-17^17p15-12~-| 
D|-----------------------------------------------------------------|
A|-----------------------------------------------------------------|
D|-----------------------------------------------------------------|

e|-------------------------------------------------------------------------|
B|-----------------------------11------------------------------------------|
G|---12-15-17-17^17p15-17~---7----10-12~--101010-88-7-8p7~--555-33-2-3p12--| 
D|-------------------------------------------------------------------------|
A|-------------------------------------------------------------------------|
D|-------------------------------------------------------------------------|

e|-----------------------------------------------------------------|
B|-----------------------------------------------------------------|
G|--10-12-14-14^14p12-14^-1010~------10-12-14-14^14p12-14^-1212----| 
D|-----------------------------------------------------------------|
A|-----------------------------------------------------------------|
D|-----------------------------------------------------------------|

e|--151515-131313-111111-101010-11p10~-----888-66-5-6p5~-----------|
B|-----------------------------------------------------------------|
G|-----------------------------------------------------------------| 
D|-----------------------------------------------------------------|
A|-----------------------------------------------------------------|
D|-----------------------------------------------------------------|

Sleeps Like A Curse chords – The Panics

 C Dm C Dm C


I'm worried I aint got the nerve to play

I'm told my problem is I act to late
      Dm
that even though I know what I say
                  C
it may not translate

I only ever try to avoid these games

If I lose my baby then I lose my way
 Dm
Lose like any gambler would
                  C F
who never could wait


                          Dm G
I aint competing just to hold you back
                           Am F
I'm never hiding you just follow my tracks
                                 Dm
I have the kind of thoughts you gotta distract
            Am C
I wouldn't lean on that



I get no feeling the ordinary way

I'm only guessing, guess I like it that way
     Dm
you see that habit still remains
                  C
of hiding from change

the only voice that answers me

is the voice of mine at age thirteen
     Dm
who learnt you never get no place
                        C F
with the weakest handshake


                  Dm
I lie under and hide at the worst
                   Am F
I prepare for the end at the first
                                  Dm
I have the kind of thought that sleeps like a curse
        Am
and it leans on her


 F Dm F Dm Am F Dm G
I aint competing just to hold you back
                           Am F
I'm never hiding you just follow my tracks
                                 Dm
I have the kind of thoughts you got to distract
            Am
I wouldn't lean on that

Curse Of Curves Acoustic chords – Cute Is What We Aim For

 D6 -x2423x
 Asus4 - 002230




 D6 Asus4 
I've got the gift of one liners
     D G 
And you've got the curse of curves
 D6 Asus4 
And with this gift I compose words
         D G 
And the question that comes forward
         D6 Asus4 
Are you perspiring from the irony
 D G 
Or are you sweating to these lyrics
 D6 
And this just in
 Asus4 
You're a dead fit
 D               
But my wit won't allow it

 G Asus4 
The inside lingo had me at hello
 D 
And we go where the money goes
 G Asus4 
The inside lingo had me at hello
 D 
And we go where the money goes

 D Asus4 
I want someone provocative and talkative
 G 
But it's so hard when you're shallow as a shower
 D Asus4 G 
And from what I've heard with skin you'll win
 D6 Asus4 
Her bone structure screams

"Touch her! Touch her!"
 G 
And she's got the curse of curves
 D6 Asus4            
So with the combination of my gift with one liners
 G 
And my way, My way with words

 D6 Asus4 
It seems I'm too hip to keep tight lipped
 G 
And you're on the gossip team
 D6 Asus4 
You're making something out of nothing
 G 
And jealousy's the cousin, the cousin of greed


 G Asus4 
The inside lingo had me at hello
 D 
And we go where the money goes
 G Asus4 
The inside lingo had me at hello
 D 
And we go where the money goes

 D Asus4 
I want someone provocative and talkative
 G 
But it's so hard when you're shallow as a shower
 D Asus4 G 
And from what I've heard with skin you'll win
 D6 Asus4 
Her bone structure screams

"Touch her! Touch her!"
 G 
And she's got the curse of curves
 D6 Asus4 G 
from what i've heard with skin you'll win

 D6 Asus4 
We all have teeth that can bite underneath
    D 
To where the reality grows
 D6 Asus4 
Yeah, that's where mine goes
 D 
that's where mine goes [x2]

 D6 Asus4 
Her bone structure screams

"Touch her! Touch her!"
 G 
And she's got the curse of curves
 D6 Asus4 G 
from what i've heard with skin you'll win

Death For My Birthday Acoustic Chords – Say Anything

 "Death For My Birthday"
CAPO1
 Em C 
Let me guide you through the story of a boy and his curse
 Em C G 
Tiny diamond in his stroller with his first step chasing the hearse
Sippin' at a cup that's half way filled
But looking forward to the day he pays that drinking bill
There's no peace, there's no quiet on this earth
He confided, nestled tightly in that womb beneath the dirt
Hurt no more and when he turned 24
He wrote a note to nail to God's front door that said

 Em 
I want death
 C 
Death for my birthday
 Em 
I want death
 Am 
Death in the worst way
 Em 
I want death
 C 
Death for my birthday
 Am G 
Don't get me wrong cause..

 Em 
I love life
 C 
But life has a boyfriend
 Em 
Bless my soul
 Am 
I'm out to destroy them
 Em 
I want death
 C 
Death for my birthday
 Am G 
For my birthday

 Em C G 
From the high paying job and the love of his life
He rode a roller coaster ride of lust on their wedding night
They made a baby in unmentionable ways
He was ungrateful as a man could be on that blessed day
And underneath he thought this is all a phase
Just a blip in the existence of a structure vast and great
Pray each night to his cross of a charm
For the one thing he couldn't afford just to buy the farm

 Em 
I want death
 C 
Death for my birthday
 Am 
I want death
 F 
Death in the worst way
 Em 
I want death
 Am                             
Death for my birthday
 Am G 
Don't get me wrong cause..

 Em 
I love life
 C 
But life has a boyfriend
 Em 
Bless my soul
 Am 
I'm out to destroy them
 Em 
I want death
 Am G 
Death for my birthday
 C 
For my birthday
                                                 

    Am C 
I'll never lose another friend again
 Em Am C 
Or watch them start a war that's fought for ideals that are dead
 Am C 
I'll never have an argument again
 Am Em 
Because my dust
 Am Em 
will be your salt
 Am F G 
My blood will hydrate you off
 C Am 
My heart will be your meal
            F G 
And I won't ride the cycle of the way it kills to think and feel

No more, no


 Em 
I want death
 C 
Death for my birthday
 Am 
I want death
 F 
Death in the worst way
 Em 
I want death
 Am                             
Death for my birthday
 Am G 
Don't get me wrong cause..

 Em 
I love life
 C 
But life has a boyfriend
 Em 
Bless my soul
 Am 
I'm out to destroy them
 Em 
I want death
 Am G 
Death for my birthday
 C 
For my birthday

 Em C 
One sweet day his heart ceased to beat
 Em Am 
He fell so fast beneath all our feet
 F G 
Through bugs and snakes
 Am C 
Last words he had to say were
 Em C 
Help me claw my way to the surface
 Em Am 
Oh sweet lord you know I deserve this
 F G 
Just one more, just one more birthday

Alien Days Chords – Mgmt V2

 MGMT - Alien Days

Standard Tuning (EADGBe)

Capo on 1st fret

Chords used:
 G#7sus4     (464644)
Emaj7      (022144) alt. (021100)
 C#m         (x46654)
 Edim        (x02323)
C7#9b5     (x4545x) alt. (x45450) 
 D6          (xx0202)
 G#7         (464544)

 E B7 E E7 
Sometimes the windows combine with the seams in a way
 C D7 G#7sus4 
That twitches on a peak at the place where the spirit was slain
 C#m C                    
One foot leads to another
 E Emaj7 
Night's for sleep, blue curtains, covers
 D Dm 
Sequins in the eyes
 A 
That's a fine time to dine
 Edim E 
Divine who's circling, feeding the cards to the midwives
 B7 E 
Who love those alien days
     B7 E 
The nonstop alien days
 B7 E 
Mmm the alien days

 E E B7 E E7 
Must've skipped the ship and joined the team for a ride
 C D7 G#7sus4 
A couple hours to learn the controls and commandeer both my eyes (hey!)
 C#m C          
Be quick dear, times are uncertain
 E Emaj7 
One month crawling, next year blurring
 D Dm 
Decades in the drain
 A 
Monograms on the brain
 Edim E 
Decide what's working and what's moved on to the last phase
     B7 E 
The floodgate alien days
   B7 E 
I love those alien days
 B7 E 
Mmm the alien days

 E F G C 
When the peels are down it feels like traveling in style
 F G A 
You don't need wings to hover forty ton stones for a mile
     Dm 
And in the summer, virgin visions
 D6                                                 
Mindless humming numbers can't 
 F G                  C7#9b5
decide if the day's supposed to smile

 E B7 E B7 A  Edim7 
 G#7sus4 G#7 C#m C E B7 E E7 
Today find infinite ways it could be plenty worse
 C D7 
It's a blessing but it's also a curse

 D7 F G C 
Those days taught me everything I know
 F G A 
How to catch a feeling and when to let it go
 Dm 
How all the scheming, soulless creatures
 D 
Can't find dreamer's honey in the hive
 F G                  C7#9b5
If it's right beneath the nose

 F G C 
And when the light is new the sky shows trembling cartoons
 F G A 
You don't need smoke to cover most of the world in a gloom
 Dm 
But here comes racer number seven
 D6 
Watch my fingers ripping out the lines
 F G                    C7#9b5
If it looks like we could lose
 F G                    C7#9b5
If it looks like we could lose
 F G                    C7#9b5
If it looks like we could lose
 F G                    C7#9b5
If it looks like we could lose

 F G  C7#9b5

Fallen World – Dragonforce Lyrics

Soldiers of Fire
Rage of the Universe
Cold steel and bloodshed
In the Lost Barren Wasteland

Fear Rising Higher,
Rage of the Winter War
Death calls and night fall,
Our Hatred Still burns us

We march through endless skies
Mankind will Fall, Death will arise

[Chorus:]
For Our Lifetime we fight without reason,
Still we wait for the warrior’s return
Though we’re cast out and broken, we still carry on
Alone in a lost fallen World

Flames burning higher,
Curse of the winterland,
Black, torn, and twisted
In the fast-fading twilight

Storm winds still flowing,
Still chase our destiny,
Death calls and night fall
Our curse with be lifted

Disguise these timeless cries
Brave men will fall, evil will rise!

[Chorus:]
For Our Lifetime we fight without reason,
Still we wait for the warrior’s return
Though we’re cast out and broken, we still carry on
Alone in a lost fallen World
Still heroes were born,
With promises so black,
The light at the end of the road which we all must light!

[Chorus:]
For Our Lifetime we fight without reason,
Still we wait for the warrior’s return
Though we’re cast out and broken, we still carry on
Alone in a lost fallen World

Through the Fire and Flames – Dragonforce Lyrics

On a cold winter morning, in the time before the light
In flames of death’s eternal reign we ride towards the fight
When the darkness has fallen down, and the times are tough all right
The sound of evil laughter falls around the world tonight

Fighting hard, fighting on for the steel, through the wastelands evermore
The scattered souls will feel the hell bodies wasted on the shores
On the blackest plains in hell’s domain, we watch them as we go
In fire and pain, and once again we know

So now we fly ever free
We’re free before the thunderstorm
On towards the wilderness our quest carries on
Far beyond the sundown, far beyond the moonlight
Deep inside our hearts and all our souls

[Chorus:]
So far away we wait for the day
For the lives all so wasted and gone
We feel the pain of a lifetime lost in a thousand days
Through the fire and the flames we carry on

As the red day is dawning
And the lightning cracks the sky
They’ll raise their hands to the heavens above
With resentment in their eyes
Running back from the mid-morning light
There’s a burning in my heart
We’re banished from a time in a fallen land
To a life beyond the stars

In your darkest dreams see to believe
Our destiny is time
And endlessly we’ll all be free tonight

And on the wings of a dream, so far beyond reality
All alone in desperation, now the time has gone
Lost inside you’ll never find, lost within my own mind
Day after day this misery must go on

[Chorus:]
So far away we wait for the day
For the lives all so wasted and gone
We feel the pain of a lifetime lost in a thousand days
Through the fire and the flames we carry on

Now here we stand with their blood on our hands
We fought so hard now can we understand
I’ll break the seal of this curse if I possibly can
For freedom of every man

[Chorus:]
So far away we wait for the day
For the lives all so wasted and gone
We feel the pain of a lifetime lost in a thousand days
Through the fire and the flames we carry on

Heart Shaped Wreckage Chords – Smash V2

 E 
I'm not scared to tell the truth
              Dbm 
I've been to hell and back, and I went with you
 A 
Remind me what we were before
              F#m B# 
When we said you are mine and I am yours
 E 
I don't know much, but I know myself
       Dbm 
And I don't want to love anybody else
 A 
So let's break the spell and lift the curse
 F#m B# 
Remember when we fell for each other head first


CHORUS

              E 
Look at this heart shaped wreckage
 Abm 
What have we done?
           Dbm A 
We've got scars from battles nobody won
              E 
We can start over, better
 Abm Dbm 
Both of us know if we just let the broken pieces
 A B# E 
Let the broken pieces go


 E 
I can't find you in the dark
 Dbm 
Will we get back to who we are?
 A 
And I can't fix this on my own
             F#m B# 
Our love is still the best thing I've ever known


              E 
Look at this heart shaped wreckage
 Abm 
What have we done?
           Dbm A 
We've got scars from battles nobody won
              E 
We can start over, better
 Abm Dbm 
Both of us know if we just let the broken pieces
 A B# Dbm 
Let the broken pieces go

 A B# Dbm 
Let the broken pieces go
      A B# E B# 
Just hold on to each other tonight, oh


              E 
Look at this heart shaped wreckage
 Abm 
What have we done?
           Dbm A 
We've got scars from battles nobody won
              E 
We can start over, better
 Abm Dbm 
Both of us know if we just let the broken pieces
 A B# 
Let the broken pieces 
 Dbm 
Let the broken pieces
 A B#          ( E )
Let the broken pieces... go

Wolf Like Me Chords – Tv On The Radio V3

 Simplified for acoustic. Throw your capo on first fret.



 Am 
Say say my playmate
                             G F 
Won't you lay your hands on me
 F 
Mirror my malady
 C 
Transfer my tragedy

 Am 
Got a curse I cannot lift
                        G F 
Shines when the sunset shifts
 F 
When the moon is round and full
       C 
Gotta bust that box gotta gut that fish

(My mind's aflame)

 Am 
We could jet in a stolen car
                              G F    
But I bet we wouldnt get too far
 F 
Before the transformation takes
 C 
Its bloodlust tanks and

Crave gets slaked

             Am 
My mind has changed

My body's framed,

But God I like it
            F 
My heart's aflame

My heart is strained
           C 
But God I like it

 Am 
Charge me your day rate
                      G F 
I'll turn you out in time
 F 
When the moon is round and full
       C Am 
Gonna teach you tricks that'll blow your mongrel mind
 Am 
Baby doll I recognize
                        G F 
You're a hideous thing inside
 F 
If ever there were a lucky kind
      C 
It's you, you, you, you

             Am 
I know it's strange

Another way

To get to know you
              F 
You'll never know

Unless we go
                C 
So let me show you
             Am 
I know it's strange

Another way

To get to know you
                F 
We've got 'til noon

Here comes the moon
           C 
So let it show you

Show you

(now)


 Am 
Dream me oh dreamer
                  G F 
Down to the floor
 F          
Open my hands and let them
 C 
Weave onto yours

 Am 
Feel me, completer
                G F 
Down to my core
 F 
Open my heart and let it
 C 
Bleed onto yours

 Am 
Feeding on fever
                  G F 
Down on all fours
 F 
Show you what all the
 C 
howling's for

 Am 
Hey hey my playmate
                     G F 
Let me lay waste to thee
 F 
Burned down their hanging trees
     C            
It's hot (here), hot (here), hot (here), hot (here)

 Am  
Got a curse we cannot lift
                         G F 
Shines when the sunset shifts
 F 
There's a curse comes with a kiss (we're howling forever)
     C 
The bite that binds the gift that gives (oh, oh)


 Am 
Now that we got gone for good (we're howling forever)
                            G F 
Writhing under your riding hood (oh, oh)
 F                               
Tell your gra'ma and your mama too (we're howling forever)
      C 
It's true, true, true, true... (oh, oh)


 Am 
We're howling forever

Oh, oh

 F 
We're howling forever
 C 
Oh, oh

Forever Chords – Bethel Music

 Forever
Bethel Music & Brian Johnson
Key of A

Verse 1
 A E 
The moon and stars they wept
                     F#m   
The morning sun was dead
                     D 
The Savior of the world was fallen
 A E 
His body on the cross
                         F#m 
His blood poured out for us
                       D 
The weight of every curse upon Him

Instrumental
 A E Bm D 

Verse 2
 A E 
One final breath He gave
                  F#m 
As heaven looked away
                     D 
The Son of God was laid in darkness
 A E 
A battle in the grave
                       F#m 
The war on death was waged
                      D 
The power of hell forever broken

Verse 3
 A E 
The ground began to shake
                      F#m 
The stone was rolled away
                         D 
His perfect love could not be overcome
 A E 
Now death where is your sting?
                 F#m 
Our resurrected King
                     D 
Has rendered you defeated

Chorus
            A E 
And now forever He is glorified
   F#m D 
Forever He is lifted high
    A E 
Forever He is risen
        F#m D 
He is alive, He is alive

Bridge
 A E 
We sing hallelujah
              F#m 
We sing hallelujah
               D 
We sing hallelujah
                   A 
The Lamb has overcome

Forever Chords – Bethel Music V2

 FOREVER
Written by Brian Johnson, Kari Jobe, Jenn Johnson, Gabriel Wilson, Joel Taylor, 
Christa Black Gifford
© 2013 Bethel Music Publishing (ASCAP)/Worship Together Music (BMI) (Adm. at 
Capitol CMGPublishing.com).
All Rights Reserved. Used by Permission.
Verse 1:
 A E F#m 
The moon and stars they wept, The morning sun was dead
                        D A 
The Savior of the world was fallen
                      E F#m 
His body on the cross, His blood poured out for us
                           D 
The weight of every curse was broken

Interlude:  A ///  E ///  Bm ///  D ///

Verse 2:
 A E F#m 
One final breathe He gave, as heaven looked away
                            D A 
The Son of God was laid in darkness
                    E F#m 
A battle in the grave, The war on death was waged
                           D 
The power of hell forever broken

Pre Chorus:
 A E F#m 
The ground began to shake, The stone was rolled away
                              D A 
His perfect love could not be overcome
                                  E 
Now death where is your sting?
                      F#m D 
Our resurrected King has rendered you defeated

Chorus:
      A E 
Forever He is glorified
     F#m D 
Forever He is lifted high
      A E 
Forever He is risen
          F#m D 
He is alive, He is alive

Solo:  A ///  E ///  F#m ///  D ///  A ///  E ///  F#m ///  D ///


Tag:
 A E 
We sing Hallelujah
                   F#m  - (Last time  Bm )
We sing Hallelujah
                   D 
We sing Hallelujah
                          A 
The Lamb has overcome

Outro:  A ///  E ///  F#m ///  D ///  A ///  E ///  F#m ///  D ///  A 




Written by Brian Johnson, Kari Jobe, Jenn Johnson, Gabriel Wilson, Joel Taylor, 
Christa Black Gifford
© 2013 Bethel Music Publishing (ASCAP)/Worship Together Music (BMI) (Adm. at 
Capitol CMGPublishing.com).

In Christ Alone Chords – Keith And Kristyn Getty

  IN CHRIST ALONE.  SUCH A GREAT SONG! I HOPE YOU ALL ENJOY!

Intro:         D Em7 G D    2x

Verse 1:
        G D G A 
IN CHRIST ALONE MY HOPE IS FOUND,
 D/F# G Em7 D      
HE IS MY LIGHT, MY STRENGTH, MY SONG;
       G D G A   
THIS CORNERSTONE, THIS SOLID GROUND,
 D/F# G Em7 D                    
FIRM THROUGH THE FIERCEST DROUGHT AND STORM.
  D/F# G D/F# A                                 
WHAT HEIGHTS OF LOVE, WHAT DEPTHS OF PEACE,
  D/F# G D/F# A               
WHEN FEARS ARE STILLED, WHEN STRIVINGS CEASE!
    G D G A 
MY COMFORTER, MY ALL IN ALL,
 D/F# G Em7 D 
HERE IN THE LOVE OF CHRIST I STAND.

Verse 2:
IN CHRIST ALONE! WHO TOOK ON FLESH
FULNESS OF GOD IN HELPLESS BABE!
THIS GIFT OF LOVE AND RIGHTEOUSNESS
SCORNED BY THE ONES HE CAME TO SAVE:
THE WRATH OF GOD WAS SATISFIED 
FOR EVERY SIN ON HIM WAS LAID;
HERE IN THE DEATH OF CHRIST I LIVE.
      
Bridge:      D Em7 G D    2x

Verse 3:            
THERE IN THE GROUND HIS BODY LAY                       
LIGHT OF THE WORLD BY DARKNESS SLAIN:                
THEN BURSTING FORTH IN GLORIOUS DAY                          
UP FROM THE GRAVE HE ROSE AGAIN!                                   
AND AS HE STANDS IN VICTORY                                 
SIN'S CURSE HAS LOST ITS GRIP ON ME,                    
FOR I AM HIS AND HE IS MINE                    
BOUGHT WITH THE PRECIOUS BLOOD OF CHRIST. 

Verse 4:  
NO GUILT IN LIFE, NO FEAR IN DEATH,
THIS IS THE POWER OF CHRIST IN ME;
FROM LIFE'S FIRST CRY TO FINAL BREATH.
JESUS COMMANDS MY DESTINY.
NO POWER OF HELL, NO SCHEME OF MAN,
CAN EVER PLUCK ME FROM HIS HAND;
TILL HE RETURNS OR CALLS ME HOME,
HERE IN THE POWER OF CHRIST I'LL STAND

NO POWER OF HELL, NO SCHEME OF MAN,
CAN EVER PLUCK ME FROM HIS HAND;
TILL HE RETURNS OR CALLS ME HOME,
HERE IN THE POWER OF CHRIST I'LL STAND.                        

TILL HE RETURNS OR CALLS ME HOME,
HERE IN THE POWER OF CHRIST I'LL STAN

I See Grace Chords – City Harvest Church

 I See Grace 
by Karen Lim - Copyright © 2006 New Creation Church
CCLI #5299234 
INTRO:           A E Bm D  
                                                                 

VERSE 1: 
 A E Bm7  
Jesus my                help, I call on Your            name     
         D A  
I       cast my cares on                You      
         E Bm7  
Jesus my        hope, my tower of               strength         
         D F#m7  
My      faith is found in               You      

 

 

PRE-CHORUS: 
         E/G# F#m7  
I see You       pierced, wounded for            me       
         D E  
When I  look to the cross I             see      

 

 

CHORUS: 
         A E  
I see   grace, sealed by Your           sacrifice        
         F#m7 D  
I see   love reaching for               me       
         A E  
Precious        blood washes and                sanctifies       
         F#m7 D  
Healing         flows, setting me               free     
         A E Bm7 D  
I see   grace                                            

 

 

VERSE 2: 
 A E Bm7  
Bearer of               sin, afflicted and              tried    
         D A  
You     paid redemption's               price    
         E Bm7  
Bearing my      curse, You've set me on                 high     
         D F#m7  
Your    death has brought me            life     

The So Called Love Song Chords – Florent Dorin

 Capo 7eme case

Intro:
    C Am F C C Am F G 
|--0--0-0--0----0--1--1--0------0--0-0--0----0--1--1--3-----|
|--1--1-1--1----1--1--1--1------1--1-1--1----1--1--1--0-1-0-|
|--0--0-0--2----2--2--2--0------0--0-0--2----2--2--2--0-----| X 2
|--2--2-2--2----2--3--3--2------2--2-2--2----2--3--3--0-----|
|--3--3-3--0----0--3--3--3------3--3-3--0----0--3--3--2-----|
|--x--x-x--0----0--1--1--x------x--x-x--0----0--1--1--3-----|

    F G 
|--1--1--3-----|
|--1--1--0-1-0-|
|--2--2--0-----|  C Am 
Once I was tired
           F C 
I wrote a so called love song
 C Am 
Wrote only few words
            F G 
And please don t get me wrong 
         C Am 
I know you deserve better
 F C 
Some kind of poetry
    C Am 
Written with golden letters
           F G 
Shinning over humanity 
      C Am 
But I ain’t no genius
     F C 
To write a love song
      C Am 
And even if I’m tired
          F              |(stop)|  C 
I say to you-ouuuuuuuuuu I do belong 

CHORUS:
 C Am F C 
If you listen to the sound of my voice
 C Am F G 
Won’t you be the one with a choooooice
 C Am F C 
I am already dumb because of my love song
 C Am F            |(stop)|  C 
Will I be the one that staaaaaaaaaay on my own? 

VERSE :

Will you be happy
When your heart dress in black
All around me
I fell the lack of distract 
But when I look through your eyes
I see what s magic on earth
And if you think its are lies
Bab’ I’ll give you a curse 
The one to love me
Until the rest of your life
This song was written for me
And you if you d like 
 
FINAL CHORUS:
 C Am F C 
If you listen to the beat of my heart
 C Am F C 
Won’t you be the one that could be smart
 C Am F C 
I’m already dumb because of my love song
 C Am F C 
Will I be the one that staaaaaaaay on my - 
               Am F C 
If you listen to the words of my love song
   C Am F G   
Won’t you understand what is going wrong
  C Am F C 
Love’s nothing about receiving but to give
      C Am F           |(stop)|   C 
So please receive my song and let myyyyyyyyyy love to live!
 F C 
love to live! (x3)

Light Up Gold Ii Chords – Parquet Courts

 Light Up Gold II by Parquet Courts (off of Light Up Gold) 


Intro: 

 A E B 


Verse: 

 B   
Twice an era comes a knock at my door,

 B 
Suspended in a window-crashing gaze of a poor spark of recognition.

 B 
It's the thrill that dies first, but,

 B 
I can think of something worse: the curse, the curse.


Chorus: 

 A E B 
Light up gold was the color of something I was looking for.

 A E B  
Light up gold was the color of something I was looking for.


Verse: 

 B 
Steady was the pace kept in that tear-leaking sway,

 B 
Sifting like a miner through the conscience debris,

 B 
Hunched down, gleaning embers from a burning field

 B 
Trying to find something warm and real.


Chorus: 

 A E B 
Cause light up gold was the color of something I was looking for.

 A E B 
Light up gold was the color of something I was looking for.



Bridge: Stay on B 


Chorus:

 A E B 
Yeah light up gold was the color of something I was looking for.

 A E B 
Light up gold was the color of something I was looking for.