Tag: cutie

I Will Follow You Into The Dark Acoustic chords – Death Cab For Cutie

 Death Cab for Cutie - I Will Follow You Into the Dark Acoustic
From The World Famous KROQ (2015)
Comment for any corrections and please rate


Capo 5

Intro:
 Am C F C G/B Am C G Am C E Am G F Fm C/G C/G Am/E 
Love of mine, someday you will die
               F 
But I'll be close behind
              C G 
I'll follow you into the dark
      C/G Am/E 
No blinding light or tunnels to gates of white
                  F 
Just our hands clasped so tight
          C G 
Waiting for the hint of a spark

     Am C 
If Heaven and Hell decide
            F C G/B 
That they both are satisfied
    Am C G 
Illuminate the No's on their vacancy signs
      Am C 
If there's no one beside you
            E Am G 
When your soul embarks
      F Fm C/G 
Then I'll follow you into the dark

     C/G Am/E 
In Catholic school as vicious as Roman rule
            F C G 
I got my knuckles bruised by a lady in black
        C/G Am/E 
And I held my tongue as she told me
                    F 
"Son, fear is the heart of love"
       C G 
So I never went back

     Am C 
If Heaven and Hell decide
            F C G/B 
That they both are satisfied
    Am C G 
Illuminate the No's on their vacancy signs
      Am C 
If there's no one beside you
            E Am G 
When your soul embarks
      F Fm C/G 
Then I'll follow you into the dark

  C/G Am/E 
You and me have seen everything to see
                  F 
From Bangkok to Calgary
          C G C/G 
And the soles of our shoes are all worn down
                Am/E 
The time for sleep is now
                   F 
It's nothing to cry about
               C G 
'Cause we'll hold each other soon
          Am F 
In the blackest of rooms

     Am C 
If Heaven and Hell decide
            F C G/B 
That they both are satisfied
    Am C G 
Illuminate the No's on their vacancy signs
      Am C 
If there's no one beside you
            E Am G 
When your soul embarks
      F Fm C Am 
Then I'll follow you into the dark
      F Fm C/G 
Then I'll follow you into the dark

All Is Full Of Love chords – Death Cab For Cutie

 All is Full of Love

In verses:
*Bm might also be Bm11
*G might also be G6
*Cmaj7 might also be C or Csus2

Intro:
 Bm G Cmaj7 

Verse:
 Bm G Cmaj7 
You'll be given love, You'll be taken care of
 Bm G Cmaj7 
You'll be given love, You have to trust it

Chorus:
 C Bm 
Maybe not from the sources
 C Bm 
You have poured yours
 C Bm 
Maybe not from the direction
 C Bm 
You are staring at

Verse:
 Bm G Cmaj7 
Twist your head around, It's all around you
 Bm G Cmaj7 
All is full of love, All around you

Bridge:
 C Em 
(All is full of love), You just ain't receiving
 C Em 
(All is full of love), Your phone is off the hook
 C Em 
(All is full of love),Your doors are all shut
 C Em 
(All is full of love), In any language,

 C Em 
(all is full of love), All is full of love.
 C Em 
(all is full of love), All is full of love.
 C Em 
(all is full of love), Yeah...


Outro:
 Em C Em 
All is full of love.
 Em C Em 
All is full of love.
 Em C Em 
All is full of love.
 Em C Em 
All is full of love.

 Em C Em Em C

The Ghosts Of Beverly Drive Tabs by Death Cab For Cutie V2

 This is being posted the day after it came out on Spotify!
Standard tuning (EADGBe).
I'm not sure of the chords, I might figure them out.
This is a great song from the self-named single!
If you have any questions, email me at winslowjisawesome (please tell me what I did wrong)!
The part that goes "I don't know why I don't know why" is really hard to hear, but it sounds good if you
 just do the solo.

Intro

E|-------------------------------------|
A|-------------------------------------|
D|-------------------------------------|
G|-------------------------------------|
B|0-0-0--0-0-0--0-0--0-0-0--0-0--------|
E|------------------------------0-1-0-1|

Verse x2
E|-----------------| x3
A|-----------------|
D|-----------------|
G|-----------------|
B|0-0-0--0-0-0--0-0|
E|-----------------|

E|--------------------|
A|--------------------|
D|--------------------|
G|--------------------|
B|0-0-0--0-0-0--------|
E|-------------0-1-0-1|

Solo
E|--------------------|
A|5-5-5-5-5-5--3-2----|
D|--------------------|
G|--------------------|
B|--------------------|
E|--------------------|

E|--------------------|
A|5-5-5-5-5-5--7-2----|
D|--------------------|
G|--------------------|
B|--------------------|
E|--------------------|

E|---------------------------------------------|
A|5-5-5-5-5--5-3-2-2---------------------------|
D|-------------------2-2-2-2-2--2--2--2--4-4-4-|
G|---------------------------------------------|
B|---------------------------------------------|
E|---------------------------------------------|

E|--------------------|
A|5-5-5-5-7-3-5-2-----|
D|--------------------|
G|--------------------|
B|--------------------|
E|--------------------|

E|--------------------|
A|5-5-5-5-5--7-2------|
D|--------------------|
G|--------------------|
B|--------------------|
E|--------------------|

E|--------------------|
A|5-5-5-5-7-3-5-2--2--|
D|--------------------|
G|--------------------|
B|--------------------|
E|--------------------|

E|---------------------------|
A|---------------------------|
D|-2-2-2-2-2--2--2--2--4-4-4-|
G|---------------------------|
B|---------------------------|
E|---------------------------|

Verse x2
E|-----------------| x3
A|-----------------|
D|-----------------|
G|-----------------|
B|0-0-0--0-0-0--0-0|
E|-----------------|

E|--------------------|
A|--------------------|
D|--------------------|
G|--------------------|
B|0-0-0--0-0-0--------|
E|-------------0-1-0-1|

Solo
E|--------------------|
A|5-5-5-5-5-5--3-2----|
D|--------------------|
G|--------------------|
B|--------------------|
E|--------------------|

E|--------------------|
A|5-5-5-5-5-5--7-2----|
D|--------------------|
G|--------------------|
B|--------------------|
E|--------------------|

E|---------------------------------------------|
A|5-5-5-5-5--5-3-2-2---------------------------|
D|-------------------2-2-2-2-2--2--2--2--4-4-4-|
G|---------------------------------------------|
B|---------------------------------------------|
E|---------------------------------------------|

E|--------------------|
A|5-5-5-5-7-3-5-2-----|
D|--------------------|
G|--------------------|
B|--------------------|
E|--------------------|

E|--------------------|
A|5-5-5-5-5--7-10-----|
D|--------------------|
G|--------------------|
B|--------------------|
E|--------------------|

E|--------------------|
A|5-5-5-5-7-3-5-2--2--|
D|--------------------|
G|--------------------|
B|--------------------|
E|--------------------|

E|----------------------------|
A|----------------------------|
D|-2-2-2-2-2--2--2--2--4-4-4--|
G|----------------------------|
B|----------------------------|
E|----------------------------|

Drum solo

Chorus x4(play solo, it sounds good)

Very last time ends like this:

E|-0-0-3-0-3-0-3-0----|
A|--------------------|
D|--------------------|
G|--------------------|
B|--------------------|
E|--------------------|

Please email me so I can make this perfect! (Or comment here! |)
                                   

Black Sun chords – Death Cab For Cutie V2

 Death Cab For Cutie - Black Sun
Capo 7th   
Intro
  Em               | D                | Am                |                 ||x2
-----------------|----------------|-----------------|-----------------|
-----------------|----------------|-----------------|-----------------|
-----------------|----------------|-----------------|-----------------|
-2---2---2---2---|0---0---0---0---|-----------------|-7---7---7---7---|
---2---2---2---2-|--2---2---2---2-|-0---0---0---0---|---0---0---0---0-|
-----------------|----------------|---3---3---3---3-|-----------------|


Verse 1
 Em D Am 
 There is whisky in the water and there is death upon the vine
 Em D                                    
 There is fear in the eyes of your father 
Am                                   Em*  (A)-7-7-7-5--
 And there is "Yours" and there is "Mine" (E)--0-0-0-0-
 Em D Am 
 There is a desert veiled in pavement and there's a city of seven hills
Em                               D    Am                         Em** (A)-7-5-7-5--
 And all our debris flows to the ocean to meet again, I hope it will  (E)--0-0-0-0-


Chorus
      C G/B       Dadd4(9)     Em 
---------------------------------------------
--------1----------3--------5----------8-----
-------0--0-------0--0-----0--0-------0--0---
------2----2-----0----0---4----4-----5----5--
-----3----------2--------5----------7--------
---------------------------------------------
How could something so fair be so cruel
        C G/B D Em 
When this black sun revolved around you


Interlude     Em     | D      | Am     |      ||


Verse 2
 Em D Am 
 There is an answer in a question and there is hope within despair
 Em D Am                 Em*
 And there is beauty in a failure and there are depths beyond compare
 Em D Am 
 There is a role of a lifetime and there's a song yet to be sung
 Em D Am                              Em**
 And there's a dumpster in the driveway of all the plans that came undone


Chorus
      C G/B D Em 
How could something so fair be so cruel
        C G/B D Em 
When this black sun revolved around you
      C G/B D Em 
How could something so fair be so cruel
        C G/B D Em 
When this black sun revolved around you


Solo   Em     | D      | Am      |      |
       Em     | D      | Am      | Em     ||


Verse 3
 Em D Am 
 There is whisky in the water and there is death upon the vine
 Em D       Em**
 And there is grace within forgiveness but it's so hard for me to find



Chorus
      C G/B D Em 
How could something so fair be so cruel
        C G/B D Em 
When this black sun revolved around you
      C G/B D Em 
How could something so fair be so cruel
        C G/B D Em 
When this black sun revolved around you

Portable Television chords – Death Cab For Cutie V2

 This is just a mashup of DCFC's "Portable Television" and The Beatles "I've Just 
Seen A Face" - two songs with similar tempo and chords; good crowd pleaser when 
sung this way. I play it by following the DCFC piano chord tempo (listen to the 
track to hear this) through the whole arrangement. 

Verse 1:
 G 
Portable television, shrouded in snow
      Am C 
In a raggedy van on the side of the road
     G 
The night it had frozen through my little bones
        Am C 
So you took me in your arms, you squeezed out the cold



Chorus 1:
 G Am C 
And oh-h-h-h, oh-h-h-h, oh-h-h-h-h, oh-h-h-h-h
 G Am C G 
And oh-h-h-h, oh-h-h-h, oh-h-h-h-h, oh-h-h-h-h



Verse 2: 
Upstate New York, autumn, brightly colored leaves
Oh, the hills were on fire, they burn for you and me
And where we were going it was built like a lie
But as sacred as the Bible, so we didn't question why



Chorus 2:
 G Am C 
And oh-h-h-h, oh-h-h-h, oh-h-h-h-h, oh-h-h-h-h
 G Am C G 
And oh-h-h-h, oh-h-h-h, oh-h-h-h-h, oh-h-h-h-h



Verse 3:
  G Em 
I've just seen a face I can't forget the time or place where we just met
                                                                   C 
She's just the girl for me and I want all the world to see we've met
          D G 
Da Da Da Da Da Da



Verse 4:
Had it been another day I might have looked the other way and
I'd have never been aware but as it is I'll dream of her tonight
Di di di di di di 



Chorus 3:
    D C G C G 
Falling yes I am falling and she keeps calling me back again (1x)



Verse 4:
Portable television, take us away
From this burden of reflection we've carried today
Oh, the generator's running but there's nothing on the air
And the static is a comfort, so we huddle around and stare



Verse 6:
I have never known the likes of this I've been alone and I have 
Missed things and kept out of sight but as it is I'll dream of her tonight
Di di di di di di 



Chorus 5:
    D C G C G 
Falling yes I am falling and she keeps calling me back again (2x)



Chorus 6: 
 G Am C 
And oh-h-h-h, oh-h-h-h, oh-h-h-h-h, oh-h-h-h-h
 G Am C G 
And oh-h-h-h, oh-h-h-h, oh-h-h-h-h, oh-h-h-h-h

    G Am C G 
Falling yes I am falling and she keeps calling me back again (2x)
 G Am C G 
And oh-h-h-h, oh-h-h-h, oh-h-h-h-h, oh-h-h-h-h    (2x)