Tag: dan

Waiting On A Song chords by Dan Auerbach

[Intro]
G D G C x2

[Verse]
       G                 D
I been thinking and been hummin'
       G                 C
I been pickin and I been strumming
     G        D            G    C G
Just waiting, waiting on a song
       G                   D
I been hitching and I been thumbin'
      G               C
I can almost hear one coming
         G        D            G    C G
I'm just waiting, waiting on a song

[Chorus 1]
  C
I looked down in my pocket
G
Underneath the bed
       C
Walked under the lamp post
        G             D
And one hit me on the head

[Verse]
     G                    D
Am I blind or too dumb to see
        G                 C
All the sound surrounding me?
         G        D            G    C G
I'm just waiting, waiting on a song

        G              D
You can look up at the stars
         G                  C
Bow your head and count the cars
                G        D            G    C G
You'll still be waiting, waiting on a song
           G              D
Might be a blue bird or a crow
     G                C
On a cord between two poles
             G        D            G    C G
They're just waiting, waiting on a song

[Chorus 2]
C
Songs don't grow on trees
          G
You gotta pick em' out the breeze
C
Fall down on your knees
    G              D
And pray one comes along

[Verse]
           G                   D
When those railroad gates come down
          G             C
You gotta stop and turn around
             G        D            G    C G
Or you'll be waiting, waiting on a song

King Of A One Horse Town Chords by Dan Auerbach

[Verse]
Am   F              Dm           G
Everyday is just a little white lie
Am         F        Dm      G
Telling myself I'm gettin' by
Am       F           Dm           G
I just stay in this room and cry
      F             G        Am
The snow it covers up the ground
    F               G     Am
And I can't hear a single sound

[Verse] 
Am                F     Dm            G
I'd turn off the TV and go for a drive
Am                F          Dm          G
But I can't see there's any signs of life
Am        F                 Dm             G
Kept a Christmas tree with blinking lights
           F               G     Am
I coulda made it but I messed around
      F              G     Am
I'm a loser with a rusted crown
  F           Am             Dm        G
Scared if I jump in the ocean I might drown

[Chorus]
 F         G         Am
King of a One Horse Town
         F         G         Am
I'm the King of a One Horse Town
       F                      
And I barely pull my weight around

[Verse]
Am                F         Dm            G
I thought about leaving but I don't know
Am             F     Dm            G
Wouldn't even know anywhere to go
Am              F     Dm            G
Guess I'll stay on desolation row
           F       G     Am
Go get stoned and hang around
                F            G     Am
The beat of my drum is the only sound
          F             Am           Dm         G
I would jump into the ocean but I'm scared I'd drown

[Chorus]
 F         G         Am
King of a One Horse Town
         F         G         Am
I'm the King of a One Horse Town
       F                      
And I barely pull my weight around

[Chorus]
 F         G         Am
King of a One Horse Town
         F         G         Am
I'm the King of a One Horse Town
       F                      
And I barely pull my weight around

King Of A One Horse Town Chords version 2 by Dan Auerbach

[Intro] 
Dm G Em7 G7 (play the Em7 by moving your pinky to the 5th fret of the second string from a normal G bar chord)

[Verse]
Dm                 G               Em7 G7
Everyday is just a little white lie
Dm                 G          Em7 G7
Telling myself I'm gettin' by
Dm                  G            Em7 G7
I just stay in this room and cry
C                  Bm     Am     Dm Em 
The snow it covers up the ground
C                  Bm     Am
And I can't hear a single sound

Dm                      G             Em7 G7
I'd turn off the TV and go for a drive
Dm                          G             Em7 G7
But I can't see there's any signs of life
Dm                         G               
Kept a Christmas tree with blinking lights
C                      Bm     Am     Dm Em
I coulda made it but I messed around
C                  Bm     Am    Dm Em
I'm a loser with a rusted crown
Dm                            Em
Scared if I jump in the ocean I might drown

[Chorus]
C         Bm        Am   Dm Em
King of a One Horse Town
C                 Bm        Am   Dm Em
I'm the King of a One Horse Town 
      F Em   Dm   C  B  A   G
And I barely pull my weight around

[Verse]
Dm                          G            Em7 G7
I thought about leaving but I don't know
Dm                     G          Em7 G7
Wouldn't even know anywhere to go
Dm                      G         Em7 G7
Guess I'll stay on desolation row
       C          Bm      Am   Dm Em
Go get stoned and hang around
               C           Bm   Am     Dm Em
The beat of my drum is the only sound
        Dm                          Em 
I would jump into the ocean but I'm scared I'd drown

[Chorus]
C         Bm        Am    Dm Em
King of a One Horse Town
      C         Bm        Am     Dm Em
I'm a King of a One Horse Town
      C         Bm        Am   Dm Em 
I'm a King of a One Horse Town
      F  Em  Dm   C  B  A   G
And I barely pull my weight around

      C         Bm        Am    Dm Em
I'm a King of a One Horse Town
C         Bm        Am    Dm Em
King of a One Horse Town
      C         Bm        Am    Dm Em
I'm a King of a One Horse Town
      F  Em  Dm   C  B  A   G
And I barely pull my weight around

Welcome Madmen With Guns chords – Dan Bern

 Standard tuning, just listen to the song to get the strumming pattern down.

        Em C 
On the TV,someone’s running
        G D 
As the helicopter cam zooms in
          Em C 
And they superimpose green arrows
        G D 
Google Earth it to the head of a pin
          Em C 
She says “There behind the police tape
          G D 
“Seen it all with my eyes and ears
        Em C 
“I was talking to my friend Charlie
           D Em 
“And then Charlie disappeared”


 Em C 
Welcome, welcome
 G D 
Come and have some fun
        Em C G D 
We got every Chinese toy under the sun
     Em C 
And every Ponzi scheme
      G D 
That ever has been run
     Em C 
And old men with hard-ons
     D Em 
And Madmen with guns


       Em C G D 
And I heard that you made threats against me and my family
       Em C G D 
And I got me a gun from a kindly neighbor lady
     Em C G D 
And I made it known that one step in the wrong direction
       Em C G D 
I’ll shoot you in the back with no hesitation


 Em C 
Welcome, welcome
 G D 
Come and have some fun
        Em C G D 
We got every Chinese toy under the sun
     Em C 
And every Ponzi scheme
      G D 
That ever has been run
     Em C 
And old men with hard-ons
     D Em 
And Madmen with guns


     C 
And who’s doing who
And where’s the fire
     G D 
And who do you think is juicin
         C 
And the rats and the zombies and the alien pigs
       G D 
Which field should we turn you loose in
 Em C 
Monkeys in captivity
 G C 
Ikea in the Amazon
 Em C 
What’s in your wallet
     D Em 
And which side are you on?


 Em C 
Can anyone still stand up
           G D 
Or are we all just too ground down
 Em C G D 
Tryin’ to make it through the day without your ass gettin’ handed back to you in town
 Em C G D 
Sitting on the freeways and the buses and the trains
 Em C G D 
Praying you can get the kids inside before it rains


 Em C 
Welcome, welcome
 G D 
Come and have some fun
        Em C G D 
We got every Chinese toy under the sun
     Em C 
And every Ponzi scheme
      G D 
That ever has been run
     Em C 
And old men with hard-ons
     D Em 
And Madmen with guns


 Em C 
Stadiums, palladiums
 G D 
Prisons second to none
     Em C 
And old men with hard-ons
     D Em 
And Madmen with guns



Hitam Dan Putih chords by Ada Band

 
[Intro]  G C G C G C D G 
Kujatuh cinta lagi tuk kesekian kali
 Em C D 
Saat pandangan kita menyatu

 G C D G 
Menatap langit biru terlukis senyum ceria
 Em C Bm Am B 
Tebarkan warna warni taburi kehidupanku


[Reff]
 E F#m C#m B 
Kuterlahir untukmu
 E F#m G#m C D  
mengukir indah dunia
 G Am Em D 
Kau mataku penuntun jalanku
      C Bm A# 
Terangi malam tak lagi gelap
      A D G 
Berhiaskan kasih nan suci

 G C D G 
Di dalam hidup ini Tak ada yang sempurna
 Em C Bm Am B 
Ada hitam dan putih dalam segala ucap dan laku

Balik ke Reff

 F Em D G 
Sumpah mati sayangku padamu
 F Em G 
Takkan ada yang menggantikan
 F Em D G 
Darat dan lautan kusatukan
 F Em D B C C B D D B C C B 
Demi keagungan cinta

Balik ke Reff

[Coda]
 G C G C G 
         Kuterlahir untukmu
 C G C G 
      Kuterlahir hanya untukmu

Night By Night chords – Steely Dan

 Night By Night


| G/A        | F/A         | Am7            |           |


                        ^ ^ ^   ^ ^ 
| F F6     |E7+9+5     | C D C Am7 
It's a beggars life, said the Queen of Spain



                        G/A 
But don't tell it to a poor man



             F6 
'Cause he's got to kill for every thrill


                    ^ ^ ^  ^ ^ 
    E7+9+5          C D      C
The best he can



 Am7 
Everywhere around me



                    G/A 
I see jealousy and mayhem



         Fmaj7 F6 
Because no men have all their peace of mind


                    ^ ^ ^  ^ ^ 
    E7+9+5          C D      C
To carry them


      Dm7 
Well I don't really care


         Em7 
If it's wrong or if it's right


       Fmaj7 
But until my ship comes in


           Em7 Dm7 G     | Am7        |          |
I'll live night by ni - ight




                        ^ ^ ^   ^ ^ 
| F F6     |E7+9+5     | C D C Am7 
When the joker tried to tell me


                        G/A 
I could cut it in this rube town


         Fmaj7 F6 
When he tried to hang that sign on me


                       ^ ^ ^  ^ ^ 
       E7+9+5          C D      C
I said Take it down


          Am7 
When the dawn patrol got to tell you twice

 
                            G/A 
They're gonna do it with a shotgun


          Fmaj7 F6         
Yes, I'm cashing in this ten-cent life


                    ^ ^ ^  ^ ^ 
    E7+9+5          C D      C
For another one


        Dm7 
Well I ain't got the heart


    Em7 
To lose another fight


      Fmaj7 
So until my ship comes in



 Em7 Dm7 G     | Am7        |          |
I'll live night by ni - ight



| G/A        | F/A         | G/A        | F/A         |

                        
                                               ^ ^ ^  ^ ^
| Am7        |           | F F6     |E7+9+5     | C D C 


                                               ^ ^ ^  ^ ^
| Am7        |           | F F6     |E7+9+5     | C D C Dm7 
Well I don't really care


         Em7 
If it's wrong or if it's right


       Fmaj7 
But until my ship comes in


           Em7 Dm7 G     | Am7        |          |
I'll live night by ni - ight


                        ^ ^ ^  ^ ^
| F F6     |E7+9+5     | C D C 
Night by     niiiight

                                                  ^ ^ ^  ^ ^
| Am7        |            | F F6     |E7+9+5     | C D C 
                         Night by     niiiight

                                                  ^ ^ ^  ^ ^
| Am7        |            | F F6     |E7+9+5     | C D C    
                         Night by     niiiight



Transcription and chart
Peter Kruger
casparus60

Sometimes When We Touch chords – Dan Hill V3

 Sometimes when we touch    Dan Hill +2 (D) intro C  C7  F Fm C  C
 
    C F G C 
You ask me if I love you and I choke on my re-ply
     Em Am D G 
I'd rather hurt you honestly than mis-lead you with a lie
     Dm G C G/B Am C/G       
And who I am to judge you   on what you say or do?
    F C/E Dm C/E G G 
I'm only just be-ginning to  see the real   you
-------------------------------------------------------
Ch   C F G Em Am D G F C/E G/D       
And sometimes when we touch the honesty's too much, and I have to close my eyes and hide
         C F G Em 
I wanna hold you till I die till we both break down and cry
         Dm Dm/G C C7 F Fm    
I wanna hold you till the fear in me sub-sides
-------------------------------------------------------
  C F G C 
Romance and all its strategy leaves me battling with my pride
     Em Am D G 
But through the insec-urity some tenderness sur-vives
     Dm G C G/B Am        
I'm just another writer still trapped within my truth
   F C/E Dm C/E G 
A hesitant prize fighter still trapped with-in my youth
---------------------------------------------------------------------------------------
Ch   C F G Em Am D G F C/E G/D       
And sometimes when we touch the honesty's too much, and I have to close my eyes and hide
         C F G Em 
I wanna hold you till I die till we both break down and cry
         Dm Dm/G C C7 F Fm    
I wanna hold you till the fear in me sub-sides
-----------------------------------------------------------------------------------
Bridge    G C 
 At     times I'd like to break you and drive you to your knees
     Am Em F G    
At times I'd like to break through and hold you endless-ly
--------------------------------------------------------------------------
    C F G C 
At times I under-stand you and I know how hard you've tried
      Em Am D G 
I've watched while love commands you and I've watched love pass you by
    Dm G C G/B Am C/G 
At times I think we're drifters still searching for a  friend
   F C/E Dm C/E G              
A brother or a sister but then the passion flares a-gain
------------------------------------------------------------------------------------
Ch   C F G Em Am D G F C/E G/D       
And sometimes when we touch the honesty's too much, and I have to close my eyes and hide
         C F G Em 
I wanna hold you till I die till we both break down and cry
         Dm Dm/G C C7 F Fm <

Budweiser – Friends Are Waiting chords – Dan Rodriguez

 This is the unnamed song from the Budweiser Commercial for Global Be(er) Responsible Day.
So many feels came up when I saw this.  Mostly because I am a dog owner.  However, this
was a perfect fit for that commercial and for any 
moment with a loved one.

Verse:
 G                            
You and me we were made for love
 Em 
A lifetime is not long enough
         Am 
To show you
 D 
What you mean to me


Chorus:
 G 
Ooooh Ooooh Ooooh
         Em 
I'll be waiting here for you
               C 
When you come home
    D 
To me

 G Em Am D 

Chorus:
 G 
Ooooh Ooooh Ooooh
         Em 
I'll be waiting here for you
               C 
When you come home
    D 
To me

I Went In chords – Dan Potthast

 chords - Brixton Parker
Questions / corrections at snoopy20704

This whole song is played ska style (upstrokes on offbeats, muted or no downstrokes) except the bridge,
which is strummed normally.

He probably plays with barre chords as that's par the course for this style of music, but to make it simpler
I transcribed it for capo 2, which is almost all open chords.

 G G C Am  
A little hope tonight
 D G C Am D 
It was small but it was all I needed
 G C Am 
A split second when
     D G 
We both lost control
             C Am 
It wasn’t just me
       D G 
It wasn’t just me
            C Am D G 
When we stopped in the street and you stopped breathing
       Am 
Your head tilted back

D (strummed)
Heart attack

D (strummed)
HEART ATTACK


(muted strumming)Em
You closed your eyes
                   B 
And opened your mouth
              C B 
Nothing came out so I went in
                  Em G  (stop muting and crescendo)
You closed your eyes and opened your mouth


            C D G 
We both stopped in the middle of the street
              C D G 
Id like to think that it wasn’t just me
                   C 
Your head leaned back
 D Em 
Heart attack
            C D G 
We both stopped in the middle of the street

(muted strumming)Em
You closed your eyes
                   B 
And opened your mouth
              C B 
Nothing came out so I went in
                  Em G  (stop muting and crescendo)
You closed your eyes and opened your mouth


 Em 
(rhythmic strumming, listen to the song to get the pattern)
 Em Am D G D        
   Three months of frustration and self mutilation
 Em Am D 
    All burned away in the middle of the street
                 G D Em  (muted strumming)
But later that night you brought it all back
 Em C 
Why did I do that
                D  (stop muting and crescendo)
Why did I do that

          C D G 
Why are you afraid of me
            C D G 
Afraid to be alone with me
                D Em 
You know I’ll ask and then you’ll crash
             G D G 
Now I know why you’re afraid of me

(muted strumming)Em
You closed your eyes
                   B 
And opened your mouth
              C B 
Nothing came out so I went in
                  Em G  (start chopping it up)
You closed your eyes and opened your mouth
                  Em 
You closed your eyes
                   B 
And opened your mouth
              C B 
Nothing came out so I went in
                  Em G  (stop muting and crescendo)
You closed your eyes and opened your mouth

 G

Days Even Years Tabs – Dan Arborise

 Days Even Years – Dan Arborise

Tuning CBDGBD - I think the origonal is another half step down, with capo on fourth, but 
this way makes it easy
to change from standard. The tab isn't exactly the same - its more simple but similar 
enough to sound good I
think. Also apologies for leaving out small bridge section... couldn't work that bit out!

CAPO 3rd Fret – all tab relative to capo.

Part A

D|-----------------0-----0-----------------------------0-----0--------------|
B|-----0-----------------------0-----------0-----------------------0--------|
G|-----------0-----------------------0-----------0-----------------------0--|
D|-----5--------5-----5-----------5--------4--------4-----4-----------4-----|
B|--0-----0--------0--------0-----------0-----0--------0--------0-----------|
C|--------------------------------------------------------------------------|

Part B

D|--------------------9--------------------------------9-----------------|
B|--5-----------5-----------------0--------5-----------------------0-----|
G|--------0-----------------0--------------------0-----------0-----------|
D|-----0-----------0-----0-----------0-----0--------0-----0-----------0--|
B|--5--------5--------5--------5--------5-----5--------5--------5--------|
C|-----------------------------------------------------------------------|

Part C

D|-----------------0-----0-------------------------0-----------------------|
B|-----0-----------------------0-------------------------0-----------0-----|
G|-----------0-----------------------0h2-----2-----------------0-----------|
D|-----0--------0-----0-----------0-------0-----------0-----0-----------0--|
B|--0-----0--------0--------0--------0----------0--------0--------0--------|
C|-------------------------------------------------------------------------|

Part D

D|-----------------0-----------------------2-----------0--------------------|
B|-----0-----------------------0-----------------0-----------------0--------|
G|-----------0-----------0-----------0-----------------------0-----------0--|
D|-----4--------4-----4-----------4--------0--------0-----0-----------0-----|
B|--------------------------------------------------------------------------|
C|--4-----4--------4--------4-----------0-----0--------0--------0-----------|

Structure:
INTRO           (A x2) B C B C
VERSE 1 (A x2) B C B C
VERSE 2         (A x2) B C B C
BRIDGE  D C D C
VERSE 3         (A x2) B C B C
BRIDGE  D C D C

Bridge section then repeats till finish.

Id Really Love To See You Tonight chords – England Dan And John Ford Coley

 I'd Really Love To See You Tonight


Intro:  F  x3   C7 

Verse 1:

 Gm7 C7 F Gm7 C7 F 
Hello, yeah it's been awhile, Not much how 'bout you?

 Am7 Dm7 C C7 
I'm not sure why I called, Guess I really just wanted to talk to you.

Verse 2:

 Gm7 C7 F Gm7 C7 F 
And I was thinking maybe later on, We could get together for awhile.

 Am7 Dm7 C C7 
It's been such a long time, And I really do miss your smile.

Chorus

 Bb Am7 Dm7        
I'm not talking 'bout movin' in,   

       Bb Am7 Dm7 
And I don't want to change your life

               Bb Am7 Dm  
But there's a warm wind blowing the stars are out

        C (hold)                        F (Repeat intro)
And I'd really love to see you tonight

Verse 3:

We could walking through a windy park, Or take a drive along the beach
Or stay a home and watch TV, You see it really doesn't matter much to me.

Chorus

Bridge
 Dm Am7 Bb C7 F 
I won't ask for promises, So you won't have to lie.

 Dm Am7 
We've both played this game before.

 C C7 
Say I love you, Say goodbye

(Outro)  Chorus x 4 to fade

Third World Man Tabs by Steely Dan V2

 Third World Man


Fm                Fm/C    Fm               Fm/C
------4--3--4--3--4-4-----------4--3--4--3--4-4--------|
------6--5--6--5--6-6-----------6--5--6--5--6-6--------|
------5--3--5--3--5-5-----------5--3--5--3--5-5--------|
-3-------------------------3---------------------------|
-3-------------------------3---------------------------|
-1-------------------------1---------------------------|


Fm                Fm/C    Fm               Fm/C
------4--3--4--3--4-4-----------4--3--4--3--4-4--------|
------6--5--6--5--6-6-----------6--5--6--5--6-6--------|
------5--3--5--3--5-5-----------5--3--5--3--5-5--------|
-3-------------------------3---------------------------|
-3-------------------------3---------------------------|
-1-------------------------1---------------------------|



Abadd2          Cm7
       Johnny's playroom


     Dbmaj7             Fm7
Is a bunker filled with sand


     Bbm7                 Cm7
He's become a third world man


Fm                Fm/C
------4--3--4--3--4-4-----|
------6--5--6--5--6-6-----|
------5--3--5--3--5-5-----|
-3------------------------|
-3------------------------|
-1------------------------|

Abadd2       Cm7
       Smoky Sunday


          Dbmaj9          Fm7
He's been mobilized since dawn


         Bbm7             Cm7
Now he's crouching on the lawn


       Fm
He's a third world man




Fm                Fm/C    Fm                Fm/C
------4--3--4--3--4-4-----------4--3--4--3--4-4--------|
------6--5--6--5--6-6-----------6--5--6--5--6-6--------|
------5--3--5--3--5-5-----------5--3--5--3--5-5--------|
-3-------------------------3---------------------------|
-3-------------------------3---------------------------|
-1-------------------------1---------------------------|

Dbmaj7      G7+9+5             Cm7addF
Soon you'll throw down your disguise


      G7sus4/D  G7-9+5     Ebmaj7 Eb6   Dbmaj9  Db6/9
We'll see be    hind those bri    ght   eyes


Bbm7       Fm7
    By and by


         G7-9          C7
When the sidewalks are safe


        Fm
For the little guy

        ------4--3--4--3--4-4----|
        ------6--5--6--5--6-6----|
        ------5--3--5--3--5-5----|
        -3-----------------------|
        -3-----------------------|
        -1-----------------------|


Abadd2          Cm7
      I saw the fireworks


    Dbmaj9                  Fm7
I believed that I was dreaming


         Bbm7               Cm7
Till the neighbors came out screaming


        Fm
He's a third world man
                           Fm/C   Fm                 Fm/C
       ------4--3--4--3--4-4-----------4--3--4--3--4-4--------|
       ------6--5--6--5--6-6-----------6--5--6--5--6-6--------|
       ------5--3--5--3--5-5-----------5--3--5--3--5-5--------|
       -3-------------------------3---------------------------|
       -3-------------------------3---------------------------|
       -1-------------------------1---------------------------|


                                 ^  ^
|Abmaj9        |Db/Gb          |Eb/F            |Cm7     Db/Eb       |


                                 ^  ^
|Abmaj9        |Db/Gb          |Eb/F            |Cm7     Db/Eb       |



|Ab            |Cm7            |Dbmaj9          |Fm7                |



|Bbm7          |Cm7            | Fm                Fm/C
                                -------4--3--4--3--4-4--------|
                                -------6--5--6--5--6-6--------|
                                -------5--3--5--3--5-5--------|
                                --3---------------------------|
                                --3---------------------------|
                                --1---------------------------|


|Ab            |Cm7            |Dbmaj9          |Fm7              |



|Bbm7          |Cm7            | Fm                Fm/C
                                -------4--3--4--3--4-

Sometimes A Song chords – Dan Fogelberg V2

 Sometimes a Song
Dan Fogelberg

Intro: One verse instrumental

   D G A Bm 
Listen to me and I will try to 
 G D Em A  
sing you a song that makes you see
 D G A Bm                
How much I long to be beside you 
      G A D  
And how much you mean to me

Refrain
 D G A Bm 
Sometimes a song’s the only way to 
 G D Em A 
Show you my heart will never stray
 D G A Bm  
So if I can’t find words to tell you, 
       G A D  
I’ll sing what I cannot say


         G A D D/C# Bm 
Let me sing you a field full of waving flowers, 
       G A D 
I’ll sing of the sun on the sea
 G Em F#m Bm 
This is the way that you make me feel 
        C A 
Every time you smile at me,
           C G A 
Will you only smile for me?


     D G A Bm     
At times it might seem I take for granted 
 G D Em A 
All of the little things you do
 D G A Bm   
Know in your heart I’m so enchanted 
      G A D  
And still so in love with you


Bridge: (Hum “Let me sing you…”) 

Refrain
         G A D D/C# Bm 
Let me sing you a field full of waving flowers, 
      G A D 
I’ll sing of the sun on the sea
 G Em F#m Bm 
This is the way that you make me feel 
        C A 
Every time you smile at me,
           C G A 
Will you only smile for me?


 D G A Bm      
Listen to me and I will try to 
 G D Em A  
Sing you a song that makes you see
 D G A Bm 
How much I long to be beside you 
     G A D 
And how much you mean to me
          G A D 
Yes and how much you mean to me


Outro:   G A D

Foe chords – Dan Smith

 Am 
Foe,
      G F 
without knowing you're around
         Am G 
when nobody's in sight,
 Am 
thoughts of you
     G F 
run through me, persevere
         Am G 
right on into the night.

  F C 
I can't see what it means,
 Am G 
I can't see through the trees
      F C 
and falling on to my knees
       Am G 
right to the ground,

the ground.

 Am 
Then,
        G F 
in the darkness there's a sound
         Am G 
still nobody in sight,
      Am G 
and fear overreaches
           F 
while the mind,
     Am G 
over-tricks your senses.

  F C 
I can't see what it means,
 Am G 
I can't see through the trees
      F C 
and falling on to my knees
       Am G 
right to the ground,

the ground.

      Am F 
So I walk, walk, walk through the trees,
          C G 
from the voice which carries in the breeze,
       Am F 
and I walk, walk, walk through the trees,
        C G 
to the pulse of my heart as it beats.

       Am F 
And I walk, walk, walk through the trees,
          C C 
from the voice which carries in the breeze,
       Am F 
and I walk, walk, walk through the trees,
        Am F 
to the pulse of my heart as it beats.


  F C 
I can't see what it means,
 Am G 
I can't see through the trees
      F C 
and falling on to my knees
       Am G 
right to the ground,

the ground.

  F C 
I can't see what it means,
 Am G 
I can't see through the trees
      F C 
and falling on to my knees
       Am G 
right to the ground,

the ground.

 Am 
Still,
      G F 
without knowing you're around
         Am G 
still nobody's in sight,
 Am 
thoughts of you
     G F 
run through me, persevere
         Am G 
right on into the night.

Nyata Dan Maya chords – Search

 #sebol
Search-Nyata dan Maya 

 Bm F#m  
Kulihat indah hari depanmu 
 G                                
Mentari sentiasa 
 Gm 
Menerangi 

 Bm F#m  
Bumi indah di telapak kakimu 
 G                                
Kan terbentang menjadi 
 Gm 
Oh milikmu 

 Em A 
Cekallah sayang dalam menempuhi 
 D G 
Dunia ini saban hari 
 Em A 
Adakalanya Mendung jua kunjung 
 D 
Bersabarlah 


                             A 
Ku kan selalu denganmu,kasih 
 Bm F#m 
Dalam jasadku yang nyata atau maya 
 G Gm 
Kerana ku terlalu mengendah 
 D A 
Suka dukamu setiap ketika

         D A 
Ku kan selalu denganmu,kasih 
 Bm F#m 
Dalam kau bertatih atau kau berlari 
 G Gm 
Andai kau jatuh kubantu kau bangun semula 

 D Em F#m - G

Goin Home chords – Dan Auerbach V2

 A F# Em D 
Ive spent too long away from home
 Em D E7 A 
Did all the things I could have done
 A F# Em D 
Gone are the days of endless thrills
 Em D E7 A 
I know Im not the only one
 E DM7 A 
So long, Im goin, goin home


 A F# Em D 
I saw the streets all ripe with jewels
 Em D E7 A 
Balconies and the laundry lines
 A F# Em D 
They tried to make me welcome there
 Em D E7 A 
But their streets did not feel like mine
 E DM7 A 
So long, Im goin, goin home


 A F# Em D 
I want the sun to hit my face
 Em D E7 A 
Through oak trees in the open lot
 A F# Em D 
Forget about the things you want
 Em D E7 A 
Be thankful for what all you got
 E DM7 A 
So long, Im goin, goin home

Robots chords – Dan Mangan V3

 Capo 2 (All chords relative to capo)

Intro:   Am   


(Verse 1)

 Am C F 
I don’t know what you’ve been told
 Am C G6 F    
But I don’t get out much these days
 Am C 
Waking young and feeling old
       F           
These days are no longer my own
     Am C G6 F 
To piss away the waking hour


(Chorus)

     Am       
But don’t, don’t, don’t
       F 
Don’t let them go
    Am 
No don’t, don’t, don’t
       F C 
Don’t let them go to waste
                G 
The fire in my eyes is bleeding
     Am F 
And now your robot heart is bleeding 


(Verse 2)

Tried to be the robot king
Oh and settled for a robot boy
Ring the bells that still can ring
And sing your fucking head off
To the one’s who are not listening

But don’t, don’t, don’t
Don’t let them go
No don’t, don’t, don’t
Don’t let them go to waste
The fire in my eyes is bleeding
And now your robot heart is bleeding


(Bridge)

     C G 
And I spend half of my life
                       Am 
In a customer service line
               F 
Flaws in the design
               C 
A sign of the times
                  G 
And that little boy
                     Am 
In the back of your mind
                    F 
Just wants you to know, He hopes that you know


       C G 
That, robots need love too
                          Am 
They want to be loved by you
                          F 
They want to be loved by you.
                          C 
They want to be loved by you   (repeat as many times as you feel)

Emily chords – Dan Griffin V2

 Dan Griffin
Emily
Leave Your Love

This version requires no capo and is easily played along with the studio version. 
It requires a deal of creativity for pull offs and whatnot so don't be afraid to 
be creative. 

The intro and verse chords I tend to play with the two top strings open
 E  022100  F#m  244200  A  577400

 E F#m A E F#m A 
And look at her dance Look at her move so slowly
        E F#m A 
On the old wooden floors With the radio on.

      E 
And every little change in the universe 
    F#m A 
It makes her heart shake and her stomach burst
           E F#m A 
And she's holding on tight but she's moving so fast.

 E F#m A E F#m A 
And when I come home She's already in the bedroom sleeping
           E F#m A 
With her headphones on And a bottle of wine.

      E        
And every little word that I say to her 
       F#m A 
It buzzes in her mind like hummingbirds
              E F#m A 
And they're hanging on tight but they're moving so fast.


 Bm A E 
She will make the moon rise in the morning.
 Bm A E 
She is not afraid to fall in love.
 Bm A C Am 
Every time she dreams I hear her crying in her sleep.
   E F#m A E F#m A 
Emily, Emily.

 Am D 
She is waiting for your love.
 Am G D 
She is waiting for your honesty.
 Am D 
Every time she falls in love,
        Em Em/F# G D C 
Ya she falls apart again
        Em Em/F# G D A 
Ya she falls apart again.

  E F#m A 
Emily is alright She's waiting for the dust to settle
         E F#m A 
On the old wooden floors With the radio on.

       E                         
And every little change in the universe
    F#m A 
It makes her heart shake and her stomach burst
           E F#m A 
And she's holding on tight but she's moving so fast.

 Bm A E 
She will make the moon rise in the morning.
 Bm A E 
She is not afraid to fall in love.
 Bm A C Am 
Every time she dreams I hear her crying in her sleep.
   E F#m A E F#m A 
Emily, Emily.



I incorporate a lot of transitional base runs into this because they REALLY fit. 
Mostly on E so it sounds like the piano in the studio version. 
(I'm not sold on the Am at the end of the bridge. It fit best but I'm open to suggestion!)

Marion Tabs by Dan Croll

 I really like this song so I tried to tab it out. I'm not sure if it's even decent 
(it sounded pretty good to me) but it's what I have.
The version I tabbed out is this one:


Intro and Verse:
e-------------------------------------------------------------------|
B----10-10---10-10---10-10---10-10-----8--8----8--8----8-8---8-8----|
G-----9--9----9--9----9--9----9--9-----9--9----9--9----7-7---7-7----|
D----10-10---10-10---10-10---10-10----10-10---10-10----8-8---8-8----|
A--8-------8-------8-------8-------------------------7-----7--------|
E-----------------------------------8-------8-----------------------|

Pre Chorus:

 Am/F      Am/F  Gm/E   Gm/E                                                       
e-------------------------------------------------------------------|
B-10---------10----8-----888888888888888----------------------------|
G--9----------9----7-----777777777777777----------------------------|
D-10---------10----8-----888888888888888----------------------------|
A--8----------8----7-----777777777777777----------------------------|
E-------------------------------------------------------------------|

Chorus (Couldn't figure the strumming properly so I'll just leave the chord progression):
                  
  Am/F    C/G    G                                                       
e----------------3--------------------------------------------------|
B--10------8-----3--------------------------------------------------|
G---9------9-----4--------------------------------------------------|
D--10-----10-----5--------------------------------------------------|
A---8-----10-----5--------------------------------------------------|
E----------------3--------------------------------------------------|
                                                                     
Bridge (part where the song slows down):                             
                                                                      
Strum pattern goes something like this: 
D-D-U-U in groups of 4 the last strum is almost unnoticeable because it is much 
softer than the previous 3.
                                                                          
 Am/F  x16                 Am  x8              Amadd9  x8
e----8------------------------8----------------------7--------------|
B---10-----------------------10---------------------10--------------|
G----9------------------------9----------------------9--------------|
D---10-----------------------10---------------------10--------------|
A----8------------------------0----------------------0--------------|
E-------------------------------------------------------------------|

Home Tabs by Dan Croll V2

 This tab is for those who want to use standard tuning to play this song.
CAPO 2

INTRO
|------------------------------------------------------------------|
|----0-------0-------0-------0-------0-------0-------0-------0-----|
|------0-------0-------0-------0-------0-------0-------0-------0---|
|--------0-------0-------2-------2-------0-------0-------2-------2-|
|--5-------5-------5-------5-------5-------5-------5-------5-------|
|------------------------------------------------------------------|

VERSE
|-------------------------------------------------------------------|
|----0-------0-------0-------0-------0-------0-------0-------0------|
|------0-------0-------0-------0-------0-------0-------0-------0----|
|--------0-------0-------2-------2-------4-------4-------5-------5--| x2
|--5-------5-------5-------5-------5-------5-------5-------5--------|
|-------------------------------------------------------------------|

|------------------------------------------------------------------|
|----5-------5-------5-------5-------5-------5-------5-------5-----|
|------5-------5-------5-------5-------5-------5-------5-------5---|
|--------5-------5-------5-------5-------5-------5-------5-------5-|
|--3-------3-------3-------3-------3-------3-------3-------3-------|
|------------------------------------------------------------------|

|------------------------------------------------------------------|
|----0-------0-------0-------0-------0-------0-------0-------0-----|
|------0-------0-------0-------0-------0-------0-------0-------0---|
|--------0-------0-------2-------2-------0-------0-------2-------2-|
|--5-------5-------5-------5-------5-------5-------5-------5-------|
|------------------------------------------------------------------|

'CHORUS'
|------------------------------------------------------------------|
|----7-------7-------7-------7-------7-------7-------7-------7-----|
|------7-------7-------7-------7-------5-------5-------5-------5---|
|--------7-------7-------7-------7-------7-------7-------7-------7-|
|--5-------5-------5-------5-------5-------5-------5-------5-------|
|------------------------------------------------------------------|

|------------------------------------------------------------------|
|----5-------5-------5-------5-------5-------5-------5-------5-----|
|------5-------5-------5-------5-------3-------3-------3-------3---|
|--------5-------5-------5-------5-------5-------5-------5-------5-|
|--3-------3-------3-------3-------3-------3-------3-------3-------|
|------------------------------------------------------------------|

|------------------------------------------------------------------|
|----0-------0-------0-------0-------0-------0-------0-------0-----|
|------0-------0-------0-------0-------0-------0-------0-------0---|
|--------0-------0-------2-------2-------0-------0-------2-------2-|
|--5-------5-------5-------5-------5-------5-------5-------5-------|
|------------------------------------------------------------------|