Tag: dark

The Dark Side chords by Muse

[Intro]
Em D Am Am
Em D Am Am


[Verse 1]
Em              Bsus4  B
I have lived in darkness
    C                      F#7
For all my life, I've been pursued
Am                           Em
You'd be afraid if you could feel my pain
                 D                           Am
And if you could see the things I am able to see


[Chorus]
Em               D
Break me out, break me out
      Am
Let me flee
Em               D
Break me out, break me out
      Am
Set me free

Em


[Verse 2]
Em              Bsus4   B
I hail from the dark side
    C                      F#7
For all my life, I've been besieged
Am                          Em
You'd be scared living with my despair
                 D                           Am
And if you could feel the things, I am able to feel


[Chorus]
Em               D
Break me out, break me out
      Am
Let me flee
Em               D
Break me out, break me out
      Am
Set me free

Em


[Solo]
D  Am
Em F#7
Am C


[Outro]
Em               D
Break me out, break me out
      Am
Let me flee
Em               D
Break me out, break me out
      Am
Set me free
Em      D        Am
Save me from the dark side
Em               D
Break me out, break me out
      Am
Set me free


Em

Dark Side Of Your Room chords by All Time Low

[Intro]
F Bb

[Verse 1]
F
  This moment feels like an echo
Bb
We've done this dance a thousand times
F
  You say that I need a refill
Bb
And twist me up 'til we blur the lines

[Pre-Chorus 1]
F
Oh-oh-oh
                Bb
Girl you make a fool of my heart
F
Oh-oh-oh
                        Bb
You don't know what you do to me

[Chorus 1]
     F
With nights like these, who needs the days?
     Bb
I'll shut my eyes and sleep them away
           F
I'm on the dark side of your room
                         Bb
With the notches on your bedpost
     F
With friends like you, who needs friends?
  Bb
I shut my mouth and we do it all again
           Dm                C
I'm on the dark side of your room
                         Bb
With the notches on your bedpost. With the notches on your

[Verse 2]
F
  This seems so complicated
Bb
Are these your friends, or are they mine?
F
  They love having you stir me up, up
Bb
And leave me burning like the LA fight

[Pre-Chorus 2]
F
Oh-oh-oh
                Bb
Girl you make a fool of my heart
F
Oh-oh-oh
                        Bb
You don't know what you do to me. Do to me, do to me

[Chorus 2]
     F
With nights like these, who needs the days?
     Bb
I'll shut my eyes and sleep them away
           F
I'm on the dark side of your room
                         Bb
With the notches on your bedpost
     F
With friends like you, who needs friends?
  Bb
I shut my mouth and we do it all again
           Dm                C
I'm on the dark side of your room
                         Bb
With the notches on your bedpost
                         F
With the notches on your bedpost
Bb                              F             Bb
       With the notches on your bedpost

[Bridge]
F
Oh-oh-oh
                Bb
Girl you make a fool of my heart
F
Oh-oh-oh
                        Bb
You don't know what you do to me in the dark

[Chorus 3]
     F
With nights like these, who needs the days?
     Bb
I'll shut my eyes and sleep them away
           F
I'm on the dark side of your room
                         Bb
With the notches on your bedpost
     F
With friends like you, who needs friends? (Who needs friends?)
  Bb
I shut my mouth and we do it all again (Do it all again)
           Dm                C
I'm on the dark side of your room
                         Bb
With the notches on your bedpost
                         F
With the notches on your bedpost

(With friends like you, who needs friends?
  Bb
I shut my mouth and we do it all again
           Dm               C
I'm on the dark side of you room
                         Bb
With the notches on your bedpost)
                         F
With the notches on your bedpost

Dark As A Dungeon chords – Kathy Mattea

 Kathy Mattea - Dark As A Dungeon


CAPO: 3rd Fret




          C F G 
Come and listen you fellows, so young and so fine
     C F C 
And seek not your fortunes in the dark dreary mines
                             F G 
It will form as a habit and seep in your soul
          C F C 
'Til the stream of your blood runs as black as the coal


CHORUS:
            G C 
Where it's dark as a dungeon and damp as the dew
       G F C 
Where danger is double and pleasures are few
                                    F G 
Where the rain never falls and the sun never shines
      C F C 
It's dark as a dungeon way down in the mines


                          F G 
It's a many a man I have known in my day
     C F C 
Who lived just to labour his whole life away
                                  F G 
Like a fiend with his dope, or a drunkard his wine
   C F C 
A man will have lust for the lure of the mines


CHORUS:
            G C 
Where it's dark as a dungeon and damp as the dew
       G F C 
Where danger is double and pleasures are few
                                    F G 
Where the rain never falls and the sun never shines
      C F C 
It's dark as a dungeon way down in the mines


INTERLUDE:  C F C F G 
Well, the midnight or the morning or the middle of day
        C F C 
Is the same to the miner digging away
                                 F G 
Where the demons of death often come by surprise
     C F C 
One fall of the slate and you're buried alive


CHORUS:
            G C 
Where it's dark as a dungeon and damp as the dew
       G F C 
Where danger is double and pleasures are few
                                    F G 
Where the rain never falls and the sun never shines
      C F C 
It's dark as a dungeon way down in the mines


                                    F G 
Well, I hope when I'm gone and the ages shall roll
    C F C 
My body will blacken and turn into coal
                                    F G 
Then I'll look from the door of my heavenly home
     Am Em F C 
And pity the miner digging my bones


CHORUS:
            G C 
Where it's dark as a dungeon and damp as the dew
       G F C 
Where danger is double and pleasures are few
                                    F G 
Where the rain never falls and the sun never shines
      C F C 
It's dark as a dungeon way down in the mines
          Am G F C F F6 C 
Oh, it's dark as a dungeon way down in the mines

I Will Follow You Into The Dark Acoustic chords – Death Cab For Cutie

 Death Cab for Cutie - I Will Follow You Into the Dark Acoustic
From The World Famous KROQ (2015)
Comment for any corrections and please rate


Capo 5

Intro:
 Am C F C G/B Am C G Am C E Am G F Fm C/G C/G Am/E 
Love of mine, someday you will die
               F 
But I'll be close behind
              C G 
I'll follow you into the dark
      C/G Am/E 
No blinding light or tunnels to gates of white
                  F 
Just our hands clasped so tight
          C G 
Waiting for the hint of a spark

     Am C 
If Heaven and Hell decide
            F C G/B 
That they both are satisfied
    Am C G 
Illuminate the No's on their vacancy signs
      Am C 
If there's no one beside you
            E Am G 
When your soul embarks
      F Fm C/G 
Then I'll follow you into the dark

     C/G Am/E 
In Catholic school as vicious as Roman rule
            F C G 
I got my knuckles bruised by a lady in black
        C/G Am/E 
And I held my tongue as she told me
                    F 
"Son, fear is the heart of love"
       C G 
So I never went back

     Am C 
If Heaven and Hell decide
            F C G/B 
That they both are satisfied
    Am C G 
Illuminate the No's on their vacancy signs
      Am C 
If there's no one beside you
            E Am G 
When your soul embarks
      F Fm C/G 
Then I'll follow you into the dark

  C/G Am/E 
You and me have seen everything to see
                  F 
From Bangkok to Calgary
          C G C/G 
And the soles of our shoes are all worn down
                Am/E 
The time for sleep is now
                   F 
It's nothing to cry about
               C G 
'Cause we'll hold each other soon
          Am F 
In the blackest of rooms

     Am C 
If Heaven and Hell decide
            F C G/B 
That they both are satisfied
    Am C G 
Illuminate the No's on their vacancy signs
      Am C 
If there's no one beside you
            E Am G 
When your soul embarks
      F Fm C Am 
Then I'll follow you into the dark
      F Fm C/G 
Then I'll follow you into the dark

Dark Sky Island Tabs – Enya

 -------------------------------------------------------------------------------
                             Dark Sky Island - Enya
-------------------------------------------------------------------------------
:majorseventh
cwarner3000 


Song is in key of C# so use a capo on first fret

Chords above are in relation to the capo



Tuning:Standard EADGBe

Capo on first fret

Intro
    C
e|---------------------------------------------------------------------------|
B|--------1-----------1-----------1-----------1------------------------------|
G|------0---0-------0---0-------0---0-------0---0----------------------------|
D|----2-------2---2-------2---2-------2---2-------2--------------------------|
A|--3-----------3-----------3-----------3------------------------------------|
E|---------------------------------------------------------------------------|

(0:08) and (0:39)Verse 
   C                       G           C
e|---------------------------------------------------------------------------|
B|--------1-----------1-----------3-----------1------------------------------|
G|------0---0-------0---0-------0---0-------0---0----------------------------|
D|----2-------2---2-------2---0-------0---2-------2--------------------------|
A|--3-----------3-----------------------3------------------------------------|
E|--------------------------3------------------------------------------------|

    F           C           G          
e|---------------------------------------------------------------------------|
B|--------1-----------1-----------0-----------0------------------------------|
G|------2---2-------0---0-------0---0-------0---0----------------------------|
D|----3-------3---2-------2---0-------0---0-------0--------------------------|
A|--3-----------3------------------------------------------------------------|
E|--------------------------3-----------3------------------------------------|

  C                         G           C
e|---------------------------------------------------------------------------|
B|--------1-----------1-----------3-----------1------------------------------|
G|------0---0-------0---0-------0---0-------0---0----------------------------|
D|----2-------2---2-------2---0-------0---2-------2--------------------------|
A|--3-----------3-----------------------3------------------------------------|
E|--------------------------3------------------------------------------------|

   F            Am         G            C
e|---------------------------------------------------------------------------|
B|--------1-----------1-----------3-----------1-----------1------------------|
G|----------2-------2---2-------0---0-------0---0-------0---0----------------|
D|------3-----3---2-------2---0-------0---2-------2---2-------2--------------|
A|----3---------0-----------------------3-----------3------------------------|
E|--1-----------------------3------------------------------------------------|


(1:42)Chorus
   Am           E            F           C
e|---------------------------------------------------------------------------|
B|--------1-----------0------------1------------1-0--------------------------|
G|------2---2-------1---1--------2---2-------0----0--------------------------|
D|----2-------2---2-------2----3-------3---2---------------------------------|
A|--0-----------2------------3-----------3--------2--------------------------|
E|---------------------------------------------------------------------------|
    Am          F           Gsus4
e|---------------------------------------------------------------------------|
B|--------1-----------1-----------1------------------------------------------|
G|------2---2-------2---2-------0---0----------------------------------------|
D|----2-------2---3-------3---0-------0--------------------------------------|
A|--0-----------3------------------------------------------------------------|
E|--------------------------3----------------------

Through The Dark chords by The Mowglis V2

 Through The Dark
The Mowgli's
Kids In Love (2015)



CAPO 4


Intro:  Em  -  C  -  G Em C G 
We're getting close, for all that I know
                Em C G 
But I take the most from things that I don't
                    Em C G D 
And whether you're high or low, I'm breathing you in, like smoke
                  Em C G 
Yeah, I know I'm getting close to letting go


 C G Em D 
Losing sight of who you are, been growing worlds apart
 C G Em 
Losing light, then something sparks
       D C G Em 
We're shining through the dark
 D C G Em D 
Shining through the dark


               Em C G 
It's coming to me, I feel everything
                Em C G 
Yet we're not afraid, we'll never be
                Em C G D 
Cause whatever hurts the most, I'm breathing it out, like smoke
                  Em C G 
Yeah, I know I'm getting close to letting go


 C G Em D 
Losing sight of who you are, been growing worlds apart
 C G Em 
Losing light, then something sparks
        D C G Em 
We're shining through the dark
        D C G Em 
We're shining through the dark
         D 
Shining through the dark


 C G Em D 
Everybody's gotta burn brighter, Everybody's gotta reach higher
 C G Em D 
Everybody's gotta find their way out,
 C G Em D 
Everybody's gotta burn brighter, Everybody's gotta reach higher,
 C G Em D 
Everybody's gotta find their way out


 C G Em D 
Losing sight of who you are, been growing worlds apart
 C G Em 
Losing light, then something sparks
 C G Em D 
Losing sight of who you are, never gonna find it living in the dark
 C G Em 
Losing light, then something sparks
        D C G Em 
We're shining through the dark
        D C G Em 
We're shining through the dark
 D C 
Shining through the dark


 C G 
Everybody's gotta burn brighter
 Em D 
Everybody's gotta reach higher
 C G 
Everybody's gotta find their way out
         D 
Shining through the dark

Kids In The Dark Tabs by All Time Low V3

 KIDS IN THE DARK


e|-----------------------------------------------------------------------------------|
B|-----------5-4-----------------2---------------------------------------------------|
G|--6-6----------6-4---2-2----------4-2-4------------1------------4-4----------------|
D|--6-6---6------------2-2---2---------------2-2---2---4-2-4------4-4------1-2-4-----|
A|--4-4----------------0-0-------------------2-2------------------2-2---2------------|
E|-------------------------------------------0-0-------------------------------------|
                                             THE KIDS IN THE DARK  THE KIDS IN THE DARK

e|-----------------------------------------------------------------------------------|
B|-----------5-4-----------------2---------------------------------------------------|
G|--6-6----------6-4---2-2----------4-2-4------------1------------4-4----------------|
D|--6-6---6------------2-2---2---------------2-2---2---4-2-4------4-4------1-2-4-----|
A|--4-4----------------0-0-------------------2-2------------------2-2---2------------|
E|-------------------------------------------0-0-------------------------------------|
                                             THE KIDS IN THE DARK  THE KIDS IN THE DARK

e|------------------------------------------------------------------------------------|
B|-----------5-4-----------------2----------------------------------------------------|
G|--6-6----------6-4---2-2----------4-2-4-----------1--------------4-4----------------|
D|--6-6---6------------2-2---2--------------2-2---2---4-2-4--------4-4------1-2-4-----|
A|--4-4----------------0-0------------------2-2--------------------2-2---2------------|
E|------------------------------------------0-0---------------------------------------|
   HERE WE ARE AT THE  END OF THE ROAD      A ROADS THATS QUIETLY  CAVING IN

e|------------------------------------------------------------------------------------|
B|-----------5-4-----------------2----------------------------------------------------|
G|--6-6----------6-4---2-2----------4-2-4-------------1------------4-4----------------|
D|--6-6---6------------2-2---2----------------2-2---2---4-2-4------4-4------1-2-4-----|
A|--4-4----------------0-0--------------------2-2------------------2-2---2------------|
E|--------------------------------------------0-0-------------------------------------|
   COME TOO FAR TO     PRETEND THAT WE DON’T  DON’T MISS WHERE WE  STARTED

e|------------------------------------------------------------------------------------|
B|-----------5-4-----------------2----------------------------------------------------|
G|--6-6----------6-4---2-2----------4-2-4-------------1------------4-4----------------|
D|--6-6---6------------2-2---2----------------2-2---2---4-2-4------4-4------1-2-4-----|
A|--4-4----------------0-0--------------------2-2------------------2-2---2------------|
E|--------------------------------------------0-0-------------------------------------|
    LOOKING BACK       I SEE A SETTING SUN    AND WATCH MY SHADOW FADE INTO THE FLOOR

e|------------------------------------------------------------------------------------|
B|-----------5-4-----------------2----------------------------------------------------|
G|--6-6----------6-4---2-2----------4-2-4-------------1------------4-4--------------2-|
D|--6-6---6------------2-2---2----------------2-2---2---4-2-4------4-4------1-2-4---2-|
A|--4-4----------------0-0--------------------2-2------------------2-2---2----------0-|
E|--------------------------------------------0-0-------------------------------------|
    I’ AM LEFT         STANDING ON THE EDGE   WONDERING HOW WE GOT THIS FAR

e|---------------------------------------------------------------------------------|
B|---------------------------------------------------------------------------------|
G|--6-6-6-6--6-6-6-6---2-2-2-2--2-2-2-2-----------------------4-4-4-4--4-4-4-4-----|
D|--6-6-6-6--6-6-6-6---2-2-2-2--2-2-2-2---2-2-2-2--2-2-2-2--

The Mundane And The Magic solo Tabs – Dark Tranquility

 ---------------------------------------------------------------------------------------------------
                                          Artist - Dark Tranquility
                                         ***************************
                                      Song - The Mundane And The Magic
                                     **********************************
                                           Album - Fiction (2007)   
                                          ***********************
                                            - Ayreon77
                                          **********************
---------------------------------------------------------------------------------------------------
Tuning = Standard



e|------------|------------------------------|---------------------------------------------|
B|------------|------------------------------|--h-p----------------------------------------|
G|-6--5-------|------------------------------|-5-6-5---5------p----------------------------|
D|------6-8-8-|--------------h-p-------------|-------8---8-6-8-6----br---------------------|
A|------------|-----8-6--8--6-8-6------------|-------------------8------------b------------|
E|------------|-6-9---------------9--9-8-9-8-|-------------------------6-8-8------6-4-2--1-|

                                                     Pleck
e|----------------------------------------------------Pinch------------|--h-h--------|--------------|
B|------------------------------------------------------p--------2-1-2-|-1-2-4-1---1-|--------------|
G|--h-h---------h-h----h-h--------------h-h----------1-3-1---1-3-------|---------3---|-----s--s-----|
D|-0-1-3--h-h--0-1-3--0-1-3--h-h-h-----0-2-3-----1-3-------3-----------|-------------|-1--3\4/3-1-3-|
A|-------0-1-3--------------0-1-3-4--3-------1-3-----------------------|-------------|--------------|
E|---------------------------------------------------------------------|-------------|--------------|


e|-------|--h--4---b-------h-h-------|
B|-------|-1-2---2-1-~~~--1-2-4-~~~~-|
G|-1-3---|---------------------------|
D|-----1-|---------------------------|
A|-------|---------------------------|
E|-------|---------------------------|



ENJOY.......

The Dark Side Of Town chords – The White Buffalo

 The White Buffalo - The Dark Side Of Town


INTRO:  G C G Am   (2x)

     G C G 
I'm headin' to the dark side of town
           C G 
Where the devil gets down
          C Em D G 
Where my money gets lost and found


   C G 
I shuffle my feet
       C G 
And I ain’t too discreet
 C Em D        
Trouble it flags me down
      Em D 
So I head underground


CHORUS:
   G C Em D 
There, there’s nothing that you can say
   G C Em D G 
There’s no need to stand in my way


         C G 
Is this heaven or hell?
              C G 
They’re both gates, just as well
                 C Em D G 
They’re all the same, far as I can tell


      C G 
This body that binds
       C G 
Gonna leave it behind
              C Em D        
See what the devil and me can find
     Em D G 
The gates open wide


CHORUS:
         C Em D 
There’s nothing that you can say
   G C Em D G 
There, there’s no need to stand in my way, hey hey hey hey
             C Em D G 
And there’s nothing that you can say, hey hey
         C Em D      
There’s no need to stand in my way, hey hey


BRIDGE:
        Am C 
In the haze and the highs
                          D C 
Your face comes crashing through my mind
     G 
Oh, what shame
                   D 
I better put you away
         Am C 
What on earth have I become
                 D C G 
I can’t hide forever from the light of day
                 D 
It’s not what I want
                     C 
But it’s always too late

            (pause)

 G C G 
Headin' to the dark side of town
           C G 
Where the devil gets down
          C Em D           
Where my money gets lost and found

In The Dark chords – Holly Drummond

 
This is my first time posting my own way of playing song...This beautiful song is really easy ..
you need to use only 4 chords : 
 C Am G F  



VERSE 1:

 C Am 
in the dark i see shadows glide on  by
         G 
mind playing tricks
 F  
will i be caught out this time?
 C Am 
in the dark i am alone  
                          
with my thoughts and my fears
       G 
how am i to know
 F 
what is black from what is white?

CHORUS:
 C Am  
please don't wipe the colours from my mind
 G 
it's getting harder to wake up
 F 
in the morning light
 C Am 
please don't wipe the colours from my mind
 G 
we're falling out of love
 F C  
and we're running out of time

VERSE 2:
in the dark i play movies in my head
mind whispers words
my courage never said
in the dark i wonder how
i lost all my feeling
how the butterflies
wept and turned to dust

CHORUS

MIDDLE:
and when the lights turn on
we'll have lost it all
stone cold strangers
lost amidst the fall
so tell the sun not to rise
let us have today
pretending our love
never went away

CHORUS

All These Dark Years Tabs by Orden Ogan

 Orden Ogan - All these dark years.
Such an amazing song,  Eldad Corem. 1\23\14

Intro:

All the open string notes are palm muted.

e|----------------------------------------------------------------------------|
B|----------------------------------------------------------------------------|
G|----------------------------------------------------------------------------|    X2
D|-----------------2------------------------------------2---------------------|
A|-----------------2---7--5-----------------------------2---7--5------------5-|
E|-0-000-0-0-23-00-0-00-00-0-5h7-00-232-0-000-0-0-23-00-0-00-00-0-5h7-00-2h3--|

e|-----------------------------------------------------------------------|
B|-----------------------------------------------------------------------|
G|-----------------------------------------------------------------------|
D|-----------------------------------------------------------------------|  X2
A|------------------7--5------------5------------------7--5------------5-|
E|-000000-0-000000-0-00-0-5h7-00-2h3--000000-0-000000-0-00-0-5h7-00-2h3--|

Then second guitar goes:

E|-2-|
A|-2-| And let it ring until the Verse starts, then it pick slides.
E|-0-|

While guitar one:

e|-------------------------------------------------------------|
B|-------------------------------------------------------------|
G|-------------------------------------------------------------|
D|-------------------------------------------------------------|
A|--10-9-7-5-5-7---10-9-7-5-5-7---10-9-7-5-5-7---10-9-7-5-5-7--|
E|-0--0-0-0-0---0-0--0-0-0-0---0-0--0-0-0-0---0-0--0-0-0-0---0-|

Verse 1:

Lost my heart on the eastern shore.. (no guitar)

All alone, here fire's dying..

   Let ring..
e|-------------|
B|-------------|
G|-------------|
D|-------------|   X2
A|-7~---5~-----|
E|---7~---5~---|

All the open E-string notes are palm muted.

I wasted half my life, But all I ever wanted was a clearer view of myself..
I broke my back with all the things that I considered, And now there's nothing left of it..

e|------------------------------------------------------------------------10-|
B|---------------------------------------------------------------------8-7---|
G|------7-----------------7-------------------7-----------------7-----7------|
D|-------5-----------------5-------------------5-----------------5---7-------|  X2
A|--------7-------2h5-------7-5-2-0-2-0---------7-----10-12-------7s9--------|
E|-0-000---3p0h2h3---0-000-------------3-0-000---0-000--0--0-000-------------|

Bridge:

All bass notes are palm muted for this part.

   And the ashes of fathers, Now cover the track
e|-------------------------------------------------|
B|-------------------------------------------------|
G|-------------------4---4-------------------4---4-|
D|-------2---2-------4---4-------2---2-------4---4-|
A|-------2---2-2-222-2-2-2-------2---2-2-222-2-2-2-|
E|-0-000-0-0-0-------------0-000-0-0-0-------------|

   In a land where fortune is borrowed
e|-------------------------------------------------|
B|-------------------------------------------------|
G|-------------------4---4-------5---5-------7---7-|
D|-------2---2-------4---4-------5---5-------7---7-|
A|-------2---2-2-222-2-2-2-3-333-3-3-3-5-555-5-5-5-|
E|-0-000-0-0-0-------------------------------------|

In these days where all luck, is just leaving the sad
                                                    In the air just thoughts full of sorrow..
e|----------------------------------------------------------------|
B|----------------------------------------------------------------|
G|-------------------4---4-------5---5-------7---7----------------|
D|-------2---2-------4---4-------5---5-------7---7--7--9--10--12--|
A|-------2---2-2-222-2-2-2-3-333-3-3-3-5-555-5-5-5--7--9--10--12--|
E|-0-000-0-0-0--------------------------------------5--7--8---10--|

Chorus:
(All open E-string notes are palm muted)

  

My Songs Know What You Did In The Dark Acoustic chords – Fall Out Boy

 Intro: Dm (add a thumb on the top strings)

 Dm 
Be careful making wishes in the dark, dark
 F 
Can't be sure when they've hit their mark
 Dm F 
And besides, in the mean meantime I'm just dreaming of tearing you apart

 Dm 
I'm in details with the devil
 F 
The world can't ever get me on my level
 Dm 
I just got to get you out the cage

I'm a young lover's rage 
 F                   
Gonna need a spark to ignite
 Dm 
My songs know what you did in the dark

Chorus:  

 Dm 
So light 'em up, up, up
 Fm 
Light 'em up, up, up
 F 
Light 'em up, up, up
 C 
I'm on fire

 Dm 
So light 'em up, up, up
 Fm 
Light 'em up, up, up
 F 
Light 'em up, up, up
 C 
I'm on fire

 Dm F C     
Whoa, oh, oh, oh, whoa, oh, oh in the dark, dark
 Dm F C     
Whoa, oh, oh, oh, whoa, oh, oh in the dark, dark

 Dm 
The writers keep writing what they write
 F 
Somewhere another pretty vein just dies
 Dm                                    
I've got the scars from tomorrow and I wish you could see
 F                                      
That you're the antidote to everything except for me
 Dm 
A constellation of tears on your lashes
 F                                   
Burn everything you love then burn the ashes
              
In the end everything collides
                                            
My childhood spat back out the monster that you see
 Dm        
My songs know what you did in the dark

Chorus: 

 Dm 
So light 'em up, up, up
 Fm 
Light 'em up, up, up
 F 
Light 'em up, up, up
 C 
I'm on fire

 Dm 
So light 'em up, up, up
 Fm 
Light 'em up, up, up
 F 
Light 'em up, up, up
 C 
I'm on fire

 Dm F C     
Whoa, oh, oh, oh, whoa, oh, oh in the dark, dark
 Dm F C     
Whoa, oh, oh, oh, whoa, oh, oh in the dark, dark

Bridge:

 Dm        
My songs know what you did in the dark
 Dm        
My songs know what you did in the dark

*drum roll*

Chorus: 

 Dm 
So light 'em up, up, up
 Fm 
Light 'em up, up, up
 F 
Light 'em up, up, up
 C 
I'm on fire

 Dm 
So light 'em up, up, up
 Fm 
Light 'em up, up, up
 F 
Light 'em up, up, up
 C 
I'm on fire

 Dm F C     
Whoa, oh, oh, oh, whoa, oh, oh in the dark, dark
 Dm F C     
Whoa, oh, oh, oh, whoa, oh, oh in the dark, dark

 Dm F C     
Whoa, oh, oh, oh, whoa, oh, oh

The Dark Night Of The Soul chords – Get Up Kids

 The Get Up Kids
The Dark Night Of The Soul
Guilt Show
2004 Vagrant Records
Submitted by: jeremyunderground41

Key:  E 

Tuning: Standard EADGBe

Chords used:
 E  -   022100
 C  -   x32010
 C#m  - x46654
 F#m  - 244222
 A  -   x02220


Intro: E--C-C#m-F#m--A- x3


Verse 1:
 E 
  Never thought
 C C#m 
anything less
     F#m A 
forever Hanging
          E 
on every word
          C C#m 
Hold the cards
    F#m A E 
in tight   But you're
 C C#m F#m 
killing me     with
    A E 
sincerity And I'd
      C C#m F#m A 
make any move tonight


Refrain:
 F#m 
   Redemption is a
      A 
bitch Too end on


Chorus 1:
 E C C#m F#m 
       The dark
night of the soul
 E C C#m F#m 
       The dark
                 E C C#m F#m-- A--
night of the soul


Verse 2:
 E C 
  All my training
             F#m 
beget a traitor
   A A  monster with  A E 
mind of it's own
     C 
The beast is
          F#m A 
poised to   strike
 E 
  The bastard
 C C#m 
plays on these
 F#m A 
   insecurities
 E C 
   It's all my
 C#m F#m A 
will to   fight


(Repeat Refrain)


Chorus 2:
 E C C#m F#m 
       The dark
night of the soul
 E C C#m F#m 
       The dark
night of the soul


Bridge:
 C#m C A 
   Oh well You know
what they say
Suddenly
 F#m 
everything's
Suddenly
 A 
everytihng's real


Chorus 3:
 E C C#m F#m 
       The dark
night of the soul
 E C C#m F#m 
       The dark
night of the soul
 E C C#m F#m 
       The dark
night of the soul
 E C C#m F#m 
       The dark
night of the soul
 E C C#m F#m 
       The dark
night of the soul
 E C C#m F#m 
       The dark
night of the soul
 E C C#m F#m 
       The dark
night of the soul
 E C C#m F#m 
       The dark
                 E C C#m F#m A E 
night of the soul

Phase Ii Symmetry – Xx Dark Medicine Tabs by Ayreon

                                           Artist - Ayreon
                                         *****************
                             Song - Phase II Symmetry - XX. Dark Medicine 
                            **********************************************
                                   Album - The Theory Of Everything
                                  **********************************
                                         - Ayreon77
                                       **********************

[Therapist]
        I know why you're....                   You're a fellow.... 
[Father]
        The choice is clear....                 I don't need to be....
 Am            Dm            C                     E
[-------0-----|-------1-----|------------0--------|--------0-----]
[---------1---|-----3---3---|--------------1------|----------0---]
[-----2-----2-|---2-------2-|---------0------0----|-----1------0-]
[---2---------|-0-----------|-------2-------------|---2----------]
[-0-----------|-------------|-0-2-3-------------3-|-2------------]
[-------------|-------------|---------------------|--------------]

               Our point of view is very much alike

               Denying him this chance just isn't right
 Am            Dm            F                 E
[-------0-----|-------1-----|-----------1-----|-------0-----]
[---------1---|-----3---3---|---------1---1---|-----0---0---]
[-----2-----2-|---2-------2-|-------2-------0-|---1-------1-]
[---2---------|-0-----------|-0-2-3-----------|-2-----------]
[-0-----------|-------------|-----------------|-------------]
[-------------|-------------|-----------------|-------------]


Guitar 2 (CAPO 7th FRET)
*************************
[Therapist]
      Give him one a day....                  That's the safest place.....

 Am            Dm            C                     E
[-------0-----|-------1-----|------------0--------|--------0-----]
[---------1---|-----3---3---|--------------1------|----------0---]
[-----2-----2-|---2-------2-|---------0------0----|-----1------0-]
[---2---------|-0-----------|-------2-------------|---2----------]
[-0-----------|-------------|-0-2-3-------------3-|-2------------]
[-------------|-------------|---------------------|--------------]

               At such a tiny dose The risks are low
                
 Am            Dm            F                 E
[-------0-----|-------1-----|-----------1-----|-------0-----]
[---------1---|-----3---3---|---------1---1---|-----0---0---]
[-----2-----2-|---2-------2-|-------2-------0-|---1-------1-]
[---2---------|-0-----------|-0-2-3-----------|-2-----------]
[-0-----------|-------------|-----------------|-------------]
[-------------|-------------|-----------------|-------------]

[Father]
      Keep it between you and me....          Oh They would never....
 Bm            Am            Em            F
[-------------|-------------|-------------|-------------]
[-------3-----|-------1-----|-------0-----|-------2-----]
[-----4---4---|-----2---2---|---------0---|-----3---3---]
[---4-------4-|---2-------2-|-----2-----2-|---4-------4-]
[-2-----------|-0-----------|---2---------|-4-----------]
[-------------|-------------|-0-----------|-------------]

               Let's both agree that no one needs to know
 Bm            Am            Em            F
[-------------|-------------|-------------|-------------]
[-------3-----|-------1-----|-------0-----|-------2-----]
[-----4---4---|-----2---2---|---------0---|-----3---3---]
[---4-------4-|---2-------2-|-----2-----2-|---4-------4-]
[-2-----------|-0-----------|---2---------|-4-----------]
[-------------|-------------|-0-----------|-------------]


[Therapist]
I know why you're here You're a fellow man of science Our point of view is very much alike
[Father]
The choice is clear I don't need to be convinced Denying him this chance just isn't right
[Therapist]
Give hi

Free Tabs by Dark New Day

 Dark New Day: Free

: mysticguitar77

YouTube Channel: MysticGuitar77

Date last modified: January 20, 2014

Tuning: Modified Drop A# (A#,F,A#,D#,F,A#)

Note: Only tabbed what I played in my cover which is enough for one guitar
      to play through the song and take note of the tuning which is
      standard Drop A# except the 1st and 2nd strings are tuned down
      an additional full step. You need to tune this way to get the
      right harmonics to play the intro/verses.

Riff 1 (clean, let all notes ring out)
A#|-----------------12*-|
 F|--------12*----------|
D#|----12*------12*-----|
A#|-13------------------| x3
 F|---------------------|
A#|---------------------|

A#|---------------------|
 F|--------12*------12*-|
D#|----12*------12*-----|
A#|-13------------------|
 F|---------------------|
A#|---------------------|

A#|-------------7*-|
 F|------7*--------|
D#|---7*-----7*----|
A#|-0--------------| x3
 F|----------------|
A#|----------------|

A#|------0----------0----|
 F|----------------------|
D#|-9/10---10-10/12---12-|
A#|----------------------|
 F|----------------------|
A#|----------------------|

Play Riff 1 x4   "Can you live without one red cent..."

Riff 2 (distortion)   "Free, now are you..."
A#|-------------------------------------------------|
 F|-------------------------------------------------|
D#|-12-12-12-12-12-12-12-12-12-12-12-12-12-12-12-12-|
A#|-10-10-10-10-10-10-10-10-10-10-10-10-10-10-10-10-|---|
 F|-10-10-10-10-10-10-10-10-10-10-10-10-10-10-10-10-|   |
A#|-10-10-10-10-10-10-10-10-10-10-10-10-10-10-10-10-|   |
                                                        |
A#|---------------------------------|                   | x2
 F|-------------------------8-8-8-8-|                   |
D#|-----------------7-7-7-7-7-7-7-7-|                   |
A#|-7-7-8-8-8-8-8-8-5-5-5-5-5-5-5-5-|-------------------|
 F|-5-5-5-5-5-5-5-5-5-5-5-5-5-5-5-5-|
A#|-5-5-5-5-5-5-5-5-5-5-5-5-5-5-5-5-|

A#|-------------------------------------------------|
 F|-------------------------------------------------|
D#|-12-12-12-12-12-12-12-12-12-12-12-12-12-12-12-12-|
A#|-10-10-10-10-10-10-10-10-10-10-10-10-10-10-10 10-|
 F|-10-10-10-10-10-10-10-10-10-10-10-10-10-10-10-10-|
A#|-10-10-10-10-10-10-10-10-10-10-10-10-10-10-10-10-|

A#|---------------------------------|
 F|---------------------------------|
D#|---------------------------------|
A#|-7-7-8-8-8-8-8\7-7-7-7-7-7-7-7-7-|
 F|-5-5-5-5-5-5-5\3-3-3-3-3-3-3-3-3-|
A#|-5-5-5-5-5-5-5\3-3-3-3-3-3-3-3-3-|

Riff 3   "When I'm stuck here on the ground..."
A#|----------------------------------------------------------------------|
 F|----------------------------------------------------------------------|
D#|----------------------------------------------------------------------|
A#|----------------------------------------------------------/10-10-8-8\-|
 F|-/5-5-------------------------------/5-5------------------/10-10-8-8\-|
A#|------1-0--0-/5-4b-4-4-/10-10-8-8-0------1-0--0-/5-4b-4-4-/10-10-8-8\-|

Play Riff 1 x3   "Can you fly without your wings on board..."
Play Riff 2 x1   "Free, now are you..."
Play Riff 3 x2   "When I'm stuck here on the ground..."

Fill 1
A#|---------------------------------------------------------------|
 F|---------------------------------------------------------------|
D#|---------------------------------------------------------------|
A#|---------------------------------------------------------------|
 F|---------------------------------------------------------------|
A#|-7-7-7-7-7-5-4-4-4-5-0-0-0-2-2-2-4-5-5-5-5-7-8-8-8-8-8-8-8-8-8-|
    * * * * * * * * * * * * * * * * * * * * * * * * * * * * * * *

A#|-----------------------------------------------------------------------|
 F|-----------------------------------------------------------------------|
D#|-----------------------------------------------------------------------|
A#|--------------

Dark Lonely Ocean chords – Naive Thieves

 The chords are right, the timing might be a bit off though. Listen to the song for the 
right timing. Cameron also does a little run during the chorus, but I figured I'd keep it 
simple. Great song! Enjoy :)

Standard Tuning
Capo on 4th fret

 D    DM7add6    Bm G A DM7 D7 Gm D 

E- 2
B- 3
G- 2
D- 0
A- x
E- X

DM7add6

E- 2
B- 2
G- 4
D- 0
A- x
E- x

 Bm 

E- 2
B- 3
G- 4
D- 4
A- 2
E- x

 G 

E- 3
B- 3
G- 4
D- 5
A- 5
E- 3

 A 

E- 0
B- 2
G- 2
D- 2
A- 0
E- x

 DM7 

E- 2
B- 2
G- 2
D- 0
A- x
E- x

 D7 

E- 2
B- 1
G- 2
D- 0
A- x
E- x

 Gm 

E- 3
B- 3
G- 3
D- 5
A- 5
E- 3



 D          DM7add6     Bm 
   A shadow in the swell
                   G 
   a weary old whale
                A DM7 
   I'm drifting through the night
 D         DM7add6        Bm 
   blacker than tobacco spit
                     G 
   abiding the water's writ
            A DM7 D7 
   I'm ready to head to port
               G A 
   I hope you find
 G A 
   uncharted seas beyond divides
 G A 
   pay this vessel no mind
 G Gm 
   alone remain floating here
              D       DM7add6    Bm D    DM7add6    Bm 
   dark lonely ocean
 D          DM7add6       Bm 
   somewhere along the way
                     G 
   a lantern upon a wave
              A DM7 
   came crashing against the hull
 D                DM7add6       Bm 
   still crooked, I crane to see
                  G 
   delicate company
              A DM7 D7 
   you said oh, it's trouble time

              G A 
   I hope you find
 G A 
   uncharted seas beyond divides
 G A 
   pay this vessel no mine
 G Gm 
   alone remain floating here
              D       DM7add6    Bm D    DM7add6    Bm 
   dark lonely ocean
 D            DM7add6   Bm 
   you anchored a family
                 G 
   a dimming memory
               A DM7 
   I'd held fast in your wake
 D          DM7add6       Bm 
   ill fated back and fill
                              G 
   return me to the soul and swill
           A DM7 D7 
   let me sink into your arms

              G A 
   I hope you find
 G A 
   uncharted seas beyond divides
 G A 
   Pay this vessel no mind
 G Gm 
   alone remain floating here
              D       DM7add6    Bm D    DM7add6    Bm 
   dark lonely ocean

Through The Deep Dark Wood chords – The Veils

 Intro
 Bm A F#m G Bm A F#m G 
Well she said "Baby, c'mon and take my hand,
 Bm A F#m G 
You know that lately you've been my only man,
 Bm A F#m G 
And all I've wanted is for you to see,
 Bm A F#m G    
C'mon now my love and take a walk with me

 Em 
Through the deep, dark wood
Through the deep, dark
Through the deep, dark wood"

 Bm A F#m G Bm 
    Love, lay your hand upon my chest so I can't go back,
 A F#m G Bm 
No this love ain't like the rest no I can't go back,
 A F#m G 
Now there's no more to love than this no I can't go 
 Bm A 
Back____
 F#m G 
Back____ 
 Bm A F#m G 
Back___________ 

Interlude
 Bm A F#m G Bm A F#m G 
Well she said: "Baby I feel you coming on__, 
 Bm A F#m G 
We've spent a lifetime getting our love all wrong"
 Bm A F#m G 
She said: "There's no need, c'mon it won't take long, 

 Em 
The dreams are strange but good, 
Through the deep, dark 
Through the deep, dark wood"

 Bm A F#m G Bm 
    Love, lay your hand upon my chest so I can't go back,
 A F#m G Bm 
No this love ain't like the rest no I can't go back,
 A F#m G 
Now there's no more to love than this no I can't go 
 Bm A 
Back____
 F#m G 
Back____ 
 Bm A F#m G 
Back___________ 

Interlude
 Bm A F#m G  x2

Outro
No I can't go
 Bm A 
Back____
 F#m G 
Back____ 
 Bm A F#m G 
Back___________ 

End on  Bm

Keep In The Dark chords – Temples V2

 Temples - Keep In The Dark

 E 
Keep in the dark to stay out of the light
Keep in the dark to stay out of the light
Keep in the dark to stay out of the light
Just stay in the sunshine

 E 
Laaaala la la

 C B  2x
 G Am E E 
Turn off your light, let's step into the dark
Sleep away the light that shines from here into her
 E                                                    
Save your face and keep your hands firmly pressed into the
 G A E 
Eeeeearth

 E 
I feel relief when nighttime eventually comes
Talk of all the dreams, you surely had one
Mind your head and keep your hands firmly pressed into the earth
 G B 
Earth

              C Am C 
Dream on and sleep won't save you from the night
          Am E 
Drink up darling, dressed in white
                 A E 
A shameful display, sewn in velvet and lace
                   B 
To keep in the dark

              C Am C 
Dream on and sleep won't save you from the night
          Am E 
Drink up darling, dressed in white
               A C 
I come with a string to recover the world
                   B E 
that sings in the night and never grows old

Solo (in  E ) 2x
e|----------------|          e|----------------|
B|----------------|          B|----------------|
G|----------------|          G|----------------| 
D|-----0-2--------| 2x, then D|----------------| 2x
A|-2-4------------|          A|----------------|
E|---------0--0---|          E|-0-3--0-2--0--0-|

 E 
The night falling saves the grace with wondering eyes
Drawn to a beauty left to leer in the light
Climb the stairs and keep your only precious white wine full 
    G A E 
of worth

 E 
Resting hair of head, it's safe from the dark 
Dressed in a body left a stranger to her
Flashing words, attempt to call an all-showing girl your true worth
 G B 
worth

              C Am C 
Dream on and sleep won't save you from the night
          Am E 
Drink up darling, dressed in white
                 A E 
A shameful display, sewn in velvet and lace
                 B 
To keep in the dark

              C Am C 
Dream on and sleep won't save you from the night
          Am E 
Drink up darling, dressed in white
               A C 
I come with a string to recover the world
                   B E 
that sings in the night and never grows old

End in  E

Love You In The Dark chords – Sombear

 Property of Trans- Records

http://sombear.tumblr.com/
http://www.youtube.com/sombearmusic
https://www.facebook.com/Sombear
https://twitter.com/sombear
VERSE:  C G D 

CHORUS:  D Am G D 

[Verse 1]
I can't love you when your hands are on me lightly
I can't love you when you speak so sweetly about me
I can't love you when you keep my picture up with you all night till the morning

[Chorus]
I can’t love you in the dark.
I can’t love you when the light’s not around.
I can’t love you in the dark, I can’t find my way around.
I can’t love you in the dark, I can’t love you when the light’s not around.
I can’t love you in the dark, I can’t find my way around.

[Verse 2]
I can't love you when you make the sun shine all day and all night.
I can't love you when you look so smooth like the moon in the daylight.
I can't think about you without feeling high and broken down at the same time.

[Chorus] x2 
I can’t love you in the dark.
I can’t love you when the light’s not around.
I can’t love you in the dark, I can’t find my way around.
I can’t love you in the dark, I can’t love you when the light’s not around.
I can’t love you in the dark, I can’t find my way around.

Light In The Dark chords – Ryan Spendlove

 Title - Light in the Dark
Artist - Ryan Spendlove
 - Georg Savolainen

Ryan plays a Gadd11 chord after playing C, you can use that or regular Gmaj

         EADGBE
Gadd11   x2001x


Intro
 C  Gadd11  Am F G C G C G C G Am 
you can lead me away pretty lady
          F G C G 
you can tempt me and i will obey oh

        C G       
if you run to the ground
           Am 
and I'll follow you down
 F 
you can keep
          G C 
you can throw me away

 C G Am F G 
but you know I'll never be a burden for certain my love


 G C G Am 
from the second I rise in the morning
         F G C G 
is the second I got you in mind oh
 C G 
I'd run through the fire
        Am 
but I won't say goodbye
                F G C 
there's some things that you can't keep aside
 C G Am F G 
and you know I'm gonna be a hand when your hurting my love

CHORUS
            F 
count the days
      C 
I'm away
            G Am 
but I've never been far from your heart
           F 
when it feels
        C  
your alone
                   G 
and stuck in the dark
           F 
when you cry
           C  
when you know
         G Am 
and it feels you won't ever get far
                 F 
I'll bear the weight
 C G 
I'll be the light in the dark


 G C G Am 
there's a look in your eyes that I don't know
          F G C G 
there's a gap in your soul I could fill oh
     C G Am 
and I don't agree it's the way it should be
             F G C 
but you'll never be lonely I swear

 C G Am F G 
and you know I'm gonna be a hand with your shelter my love

CHORUS

            F 
count the days
      C 
I'm away
            G Am 
but I've never been far from your heart
           F 
when it feels
        C  
your alone
                   G 
and stuck in the dark
           F 
when you cry
           C  
when you know
         G Am 
and it feels you won't ever get far
                 F 
I'll bear the weight
 C G 
I'll be the light in the dark