Tag: Darkness

The System Only Dreams In Total Darkness Chords version 3 by The National

This works quite well without the capo, but if you want to play along the original record you'll need one
on the 8th fret. Have fun!

[Verse 1]
        Am                   D
Maybe I listen more than you think
      Em                 D
I can tell that somebody sold you
              Am               D
We said we’ve never let anyone in
             Em          D
We said we’d only die of lonely secrets

[Chorus]
C          D                G
The system only dreams in total darkness
            Am
Why are you hiding from me?
C          D                 G
We’re in a different kind of thing now
                 Am
All night you’re talking to God

[Verse 2]
               Am                  D
I thought that this would all work out after a while
           Em                         D
Now you’re saying that I’m asking for too much attention
        Am                    D
Also no other faith is light enough for this place
   Em                    D
We said we’d only die of lonely secrets

[Chorus]
C          D                G
The system only dreams in total darkness
            Am
Why are you hiding from me?
C          D                 G
We’re in a different kind of thing now
                 Am
All night you’re talking to God

[Bridge]
C          D
I cannot explain it
G          Am
Any other, any other way
C          D
I cannot explain it
G          Am
Any other, any other way

[Chorus]
C          D                G
The system only dreams in total darkness
            Am
Why are you hiding from me?
C          D                 G
We’re in a different kind of thing now
                 Am
All night you’re talking to God

[Outro]
C          D
I cannot explain it
G          Am
Any other, any other way
C          D
I cannot explain it
G          Am
Any other, any other way
C          D
I cannot explain it
G          Am
Any other, any other way
C          D
I cannot explain it
G          Am
Any other, any other way

The System Only Dreams In Total Darkness chords by The National

Capo 1st fret

[Intro]

Em - G - F#m - G
Em

[Verse 1]
        Em                    A
Maybe I listen more than you think
            Bm             A
and I can tell that somebody sold you
        Em                     A
We said we’ve never let anyone in
             Bm           A
We said we’d only die of lonely secrets

[Chorus]
G               A                D
The system only dreams in total darkness
            G
Why are you hiding from me?
           A                 D
We’re in a different kind of thing now
                  G
All night you’re talking to God

Em

[Verse 2]
Em                              A
I thought that this would all work out after a while
            Bm             A
Now you’re saying that I’m asking for too much attention
Em                              A
Also no other faith is light enough for this place
            Bm             A
We said we’d only die of lonely secrets

[Chorus]
G               A                D
The system only dreams in total darkness
            G
Why are you hiding from me?
           A                 D
We’re in a different kind of thing now
                  G
All night you’re talking to God

Em

[Bridge]
G             A
I can’t explain it
D          G
Any other, any other way
G             A
I can’t explain it
D          G
Any other, any other way

Em

[Solo]

Em - A - Bm - A (x2)
G - A - D - G (x2)

G - A - D - G

[Chorus]
G               A                D
The system only dreams in total darkness
            G
Why are you hiding from me?
           A                 D
We’re in a different kind of thing now
                  G
All night you’re talking to God

[Outro]
G             A
I can’t explain it
D          G
Any other, any other way
G             A
I can’t explain it
D          G
Any other, any other way
G             A
I can’t explain it
D          G
Any other, any other way
G             A
I can’t explain it
D          G
Any other, any other way

Em

Darkness Records chords by Jeff Rosenstock V2

 Standard Tuning, Capo on 1st


    G D G 
   Burn my Mona Lisa
            C G D 
   I would like another chance
           Am   
   To put stars in her eyes,
         C 
   Fire pipes in the sky
              G D Em 
   And brass knuckles on her hands.
            Am C 
   She can breathe. She can see
                    G 
   When you’re not watching.
    G D G 
   Throw away my letters
            C G D 
   I would like another shot
             Am           
   To put a shine in your smile
              C 
   Make your nights worthwhile
             G D Em 
   Like I’m with you when I’m not
           Am C 
   I disappear and reappear.              
             [  Em Bm Am Am  ]x4
   I’m made of magic.


    C G 
       Shred your photo albums
    Em Bm C 
   They’re not gonna save anything.   
          G D 
   Petty moments in a grave.


[  G G Em Em Am Am D D  ]x4


    G D G 
   Toss your newborn baby.
      C G D 
   He deserves a better path
            Am 
   Than an Ambien dream
                C 
   Filled with Vicodin dreams
         G D Em 
   Predetermined to relapse
             G Em 
   Spending weekends in the bath.
           Am C G 
   He can breathe through the cheeks of the tauntaun.

Patterns chords – Simon And Garfunkel

 Dm            
The night sets softly 
                          F Dm       
With the hush of falling le-e-eaves, 
                      
Casting   shivering shadows 
                           C              
On the houses through the trees, 
         Dm                    
And the light from a street lamp 
                        F Dm     
Paints a pattern on my wa-a-all, 
                        C  
  Like the pieces of a puzzle 
      Bb C Dm             
Or a child's   uneven scrawl 

      Dm                    
Up a narrow flight of stairs 
                    F Dm     
In a narrow little ro-o-oom, 
                   
As I lie upon my bed 
                      C              
In the early evening gloom. 
   Dm                   
Impaled on my wall 
                   F Dm     
My eyes can dimly se-e-e 
                    C  
 The pattern of my life 
         Bb C Dm          
And the puzzle  that is me. 

          Dm                
From the moment of my birth 
                      F Dm      
To the instant of my de-e-eath, 
                            
There are Patterns I must follow 
                             C               
Just as I must breathe each breath. 
        Dm               
Like a rat in a maze 
                    F Dm     
The path before me li-i-ies, 
                        C  
 And the pattern never alters 
   Bb C Dm            
Until  the rat dies. 

         Dm                    
And the pattern still remains 
                            F Dm      
On the wall where darkness fe-e-ell, 
                           
And it's fitting that it should, 
                         C              
For in darknesss I must dwell. 
          Dm                  
Like the color of my skin, 
                        F Dm     
Or the day that I grow o-o-o-old, 
                    C  
My life is made of Patterns 
          Bb C Dm               
That can scarcely  be controlled. 

Dare chords – Stan Bush V2

 G C D C C D G 
Sometimes when your hopes have all been shattered
 C 
And there's nowhere to turn
 G C 
You wonder how you keep going
 G 
Think of all the things that really mattered
 C 
And the chances you've earned
 G C 
The fire in your heart is growing
 Bb C 
You can fly, if you try leaving the past behind
 Dm C D 
Heaven only knows what you might find

 G C Em D 
Dare - dare to believe you can survive
 G C D 
You hold the future in your hand
 G C Em D 
Dare - dare to keep all of your dreams alive
 D C D C D C 
It's time to take a stand
 D G 
And you can win, if you dare

 G 
Everybody's trying to break your spirit
 C 
Keeping you down
 G C 
Seems like it's been forever
 G 
But there's another voice if you'll just hear it
 C 
Saying it's the last round
 G C 
Looks like it's now or never
 Bm C 
Out of the darkness you stumble into the light
 Dm D 
Fighting for the things you know are right


 G C Em D 
Dare - dare to believe you can survive
 G C D 
The power is there at your command
 G C Em D 
Dare - dare to keep all of your dreams alive
 D C D C D C 
It's time to take a stand
 D E D 
And you can win, if you dare

 Em D Em D Em C D C D G C Em D 
Dare - dare to believe you can survive
 G C D 
You hold the future in your hand
 G C Em D 
Dare - dare to keep all of your dreams alive
 G C D 
The power is there at your command

 G C Em D 
Dare - dare to keep all your love alive
 G C D 
Dare to be all you can be
 G C Em D 
Dare - 'cause there is a place where dreams survive
 G C D 
And it's calling you on to victory

Lead Me Home chords – Fm Radio

 Such a simple yet beautiful song. Melancholic yet peaceful. Song follows an almost hymnal pattern.

Key:  G G           
Let the rain come wash away
             C G 
Trembling fears and toiling days
         C G 
Let the river overflow
              D7 
And lead me home
          G 
Lead me home


            G 
I am the sweet hush morning calm
       C G 
I am heavens open arms
         C G 
I am a thousand winds that blow
          D7 
Lead me home
         G 
Lead me home


            Em C G 
All these roads I've traveled on
          Em C G 
Lead me back to where I've come
        Em C G 
And I know I'm not alone
               D7 
They lead me home
          G 
Lead me home


         G 
I will give my love to you
                 C G 
Like fields of flowers sweet perfume
                C G 
And like the gleam of fallen snow
          D7 
Lead me home
          G 
Lead me home


         G  
Do not weep, I am not gone
         C G 
Feel me in the rising sun
              C G 
Through the valleys wide and low
          D7 
Lead me home
          G 
Lead me home


           Em C G  
When the darkness overcomes
         Em C G 
Just remember all my love
               Em C G  
And when you know it's time to go
                D7 
I'll lead you home
           G 
Lead you home


          G 
We all exist in everyone
          C G 
Memories of the world we spun
        C G 
I am ready, rock me slow
              D7 
And lead me home
          G 
Lead me home

Out Of The Darkness chords – Matthew And The Atlas

 Bm D A Bm 
I saw you in my mind when I was younger
And I grew older and I saw you still
You'd stay close to me sometimes behind my shoulder
When I was weary, trouble would come

In my last defence you tried to warn me
I did not know you, you were a demon to me
Your presence here was a fear that lived inside me
That grew around me then you would appear

 A G Bm 
DEEP BELOW THE EARTH I might have found you
 A G Bm 
HIGH ABOVE THE TOWER I could not see
 G A E   
DEEP BELOW THE EARTH I might have found you
 G A Bm 
HIGH ABOVE THE TOWER I could not see
 
 Bm D Bm Bm D A Bm 
I was dead and I was dying at your doorway
I did not see you, you did not appear
And between the years I might have come to know you
But I don't own you, that much is clear

 A G Bm 
DEEP BELOW THE EARTH I might have found you
 A G Bm 
HIGH ABOVE THE TOWER I could not see
 G A E   
DEEP BELOW THE EARTH I might have found you
 G A Bm 
HIGH ABOVE THE TOWER I could not see

 Bm Bm A E 
I was afraid someday you'd return
And changed at my door as you'd once been before
The flutter of fortune, the bringer of gloom
 G A E 
Out of the darkness and into my room

 Bm A E 
I was afraid someday you'd return
And changed at my door as you'd once been before
The flutter of fortune, the bringer of gloom
 G A E 
Out of the darkness and into my room

Light In The Darkness Tabs by Matthew Socci

 Light in the darkness
- Matthew Socci

http://www.youtube.com/watch?v=dt1juNm2oSg (listen for reference)
Gtr I (D A D G A D) - 'Untitled'
No capo.

Notes: Many of the hammerons and pulloffs, vibratos and harmonics are not shown
in the tab, however i assure you that more or less all of the notes are correct, even
though the order may be a bit different for this is my first tab and i have only been 
playing guitar for about a year and a half.
Almost every note denoted 12 has to be a harmonic, and some of them have to be
slaps. Kindly refer to the video for getting the basic idea and please go easy on me :P

Please email comments, corrections, suggestions and the rest to
the email: akhauri.yash.prolong (: Yash Akhauri)
p = pull-off, h = hammer-on, s = slide

Important: Even though i have tried my best to keep the order correct, some parts might be
mixed up in order, but i am pretty sure that they are all tabbed correctly. Also, this 
is my
first tab and i dont know music theory so the beats are something you will have to 
figure out
haha :)
Have fun!


  Gtr I
   E E E E E E E E.. E E E E E E E  E E E E E E E E E E E  E
|----0-4-5-7-7-5-4---0---4-0-------12-0h7h9p7p0-----------12-|
|----------------------5-----5-7-9-12-----------7h9-9p7p5-12-|
|----------------------------------12---------------------12-|
|-12------------------------------------------------------12-|
|-12------------------------------------------------------12-|
|-12------------------------------------------------------12-|


   E E E E E E E E..   E E E E E E E  E   E E E E E E E E   E E  E
|----0-4-5-7-7-5-4---|-0---4-0-------12-|-0h7h9p7p0-------|-----12-|
|--------------------|---5-----5-7-9-12-|-----------7h9-9p|=7p5-12-|
|--------------------|---------------12-|-----------------|-----12-|
|-12-----------------|------------------|-----------------|-----12-|
|-12-----------------|------------------|-----------------|-----12-|
|-12-----------------|------------------|-----------------|-----12-|


  E E E E E E E E E E E E E E E E E E E E E E E E E E E E E E E E E
|---2-4-5-4-2-4-2-0---2-4-5-7-5-4-2---2-4-5-7-5-4-2-----------------|
|---------------------------------------------------4-2-4-2-4-2-4h5-|
|-------------------------------------------------------------------|
|-------------------------------------------------------------------|
|-5-----------------7---------------9-------------------------------|
|-5-----------------7---------------9-------------------------------|


  E E E E E E E E   E E E E E E E E   E
|---2-4-5-4-2-4-2-|-0---2-4-5-7-5-4-|-2--|
|-----------------|-----------------|----|
|-----------------|-----------------|----|
|-----------------|-----------------|----|
|-5---------------|---7-------------|----|
|-5---------------|---7-------------|----|


  E E E E E E E E E E E E E E E E
|---2-4-5-7-5-4-2-----------------|
|-----------------4-2-4-2-4-2-4h5-|
|---------------------------------|
|---------------------------------|
|-0-------------------------------|
|-0-------------------------------|


  E E E E E E E E   E E E E E E E E   E E E E  E
|---2-4-2-2h4p2p0-|-2-0---2-4-2-2h4p|=2p0-2-0-----|
|-----------------|-----------------|-------------|
|-----------------|-----------------|---------12--|
|-----------------|-----------------|---------12--|
|-5---------------|-----7-----------|---------12--|
|-5---------------|-----7-----------|---------12--|


  E E E E E E E E   E E E E E E E E E E E E E E E E E E E E E E E E
|-2-4-5-4-2-------|-------------------------------------------------|
|-----------4-2---|-----------------2-4-5-4-2-4-2-0---2-4-5-7-5-4-2-|
|---------------4-|-2-----------------------------------------------|
|-----------------|---4-2-------------------------------------------|
|-----------------|-------4-2-----5-----------------7---------------|
|-----------------|-----------4-2-5-----------------7-----------

All Who Remain Tabs by Beware Of Darkness V2

 5. All Who Remain
Beware of Darkness
Orthodox

Tuning: Drop D

Main riff
e|----------------------------------------|
B|----------------------------------------|
G|----------------------------------------|
D|----4----6----7----9----11----7----4----|
A|---(0)--(2)--(4)--(7)--(7)---(4)--(0)---|
D|----0----2----4----6----7-----4----0----|

Fills
e|----------------|-------------|
B|---5\3----------|---------2---|
G|-------2--------|-------------|
D|---------4brb---|---2/4\2-----|
A|----------------|-------------|
D|----------------|-------------|

Solo
e|---0---0------0--------------17--------17--17-------------------------|
B|---2/5---5/10---10/14-14b-------17b-14-14b-----------------14---------|
G|--------------------------14---------------14--------14-16------------|
D|-----------------------------------------------14h16----------14h16---|
A|----------------------------------------------------------------------|
D|----------------------------------------------------------------------|

e|---0---0------0--------------17--------17--17-------------------------|
B|---2/5---5/10---10/14-14b-------17b-14-14b-----------------14-15------|
G|--------------------------14---------------14--------14-16------------|
D|-----------------------------------------------14h16------------------|
A|----------------------------------------------------------------------|
D|----------------------------------------------------------------------|

Interlude
e|---------------------------------------------------------------|
B|---------------------------------------------------------------|
G|---------------------------------------------------------------|
D|-------------------------------------------7~777777777777777---|
A|-------------------------------------------7~777777777777777---|
D|---0-2-4-6---0-2-4-6---0-2-4-6---0-2-4-6---7~777777777777777---|

Main riff
e|----------------------------------------|
B|----------------------------------------|
G|----------------------------------------|
D|----4----6----7----9----11----7----4----|
A|---(0)--(2)--(4)--(7)--(7)---(4)--(0)---|
D|----0----2----4----6----7-----4----0----|

How Dare You Call This Love chords – Darkness

 G Cadd9 
All i wanna do is spend a little time with you
 G Cadd9 
But you're so young, it's obscene
 G Cadd9 
I'll just keep biding my time til you put your little hand in mine
 Em D C 
Boy i can't wait for the day when you finally turn sixteen

           C G D 
There are so many rats on a sinking ship
         C G D C 
There's so much of you i can't wait   to get to grips
                G   
When your halo slips

 G D Em C 
How dare you call this love
                       G D Em C 
Oooh that's what they say; it's that urge i've gotta fight
 G D Am B/G C 
How dare you call this love
 Em D C7 
Why, it flies in the face of all that is good and is right

 G  /  F#/G  /  Em  /  C  /

 G Am Cmaj7 
You've got it all, you're always my first port of call
 G Am Cmaj7 
This is the happiest i've ever been
 G Am Cmaj7 
And i know i should wait, but you're laying it all out on a plate
 Em D C 
And i'm just a pawn in the game for when the laws of nature intervene

           C G D 
There are so many rats on a sinking ship
         C G D C 
There's so much of you i can't wait   to get to grips
                G   
When your halo slips

 G D Em C 
How dare you call this love
                       G D Em C 
Oooh that's what they say; it's that urge i've gotta fight
 G D Am B/G C 
How dare you call this love
 Em D C7 
Why, it flies in the face of all that is good and is right, yeah

Guitar solo:

 C  /  G  /  D  //

 Em  /  D  /  C  //

 G D Em C 
How dare you call this love
                       G D Em C 
Oooh that's what they say; it's that urge i've gotta fight
 G D Am B/G C 
How dare you call this love
 Em D C Ab Eb Fm C# 
Why, it flies in the face of all that is good and is right, yeah
                        Ab 
Oooh, that's what they say
           Eb Fm C# 
It's that urge i've gotta fight
      Ab Eb 
Oh i know, oh i know
        Bbm C/Ab C# 
Oh but please, not  again
 Fm Eb C# 
Cause it flies in the face of all that is good and is right, yeah...

Oh Darkness Looming chords – Sounder

 F#m 
Oh darkness looming (eeeeeee)
 Bm 
Oh darkness looming (eeeeeee)
 A 
Oh darkness looming (eeeeeee)



 E A 
Hold still vibrations
 E F#m 
Hold still the Mississippi sun
                B7 
I saw in the middle of the sky
                   E 
In the middle of July

(Same chords as last verse for rest of song)
Hold still new sun beam
I'll squint my eyes to see you're light stream
In the passengers seat
With my head against the clouds

I saw a quiet lonesome sunrise
Beat against the car and your knuckles there
On the wheel 
What burning wind

What sleeping rainstorm did you squander
Disappearing days with the drinking man
With the drinking man
Oh tired love

You fell asleep against a brick wall
20 years ago and left me here and now
Oh gnashing teeth 
Oh splintered deep

Oh sparkled breeze
Oh calling sleep

Oh darkness looming
Oh darkness looming
Oh darkness looming 

Oh darkness looming
Oh darkness looming
Oh darkness looming

When The Darkness Comes chords – Colbie Caillat V5

 Colbie Caillat - When The Darkness Comes
Capo 2nd   6/8

Intro 
  Am            | E              | F              | Csus C       ||
--------------|--------------|--------------|--------------|
--------------|--------------|--------------|--------------|
----2-----2---|----1-----1---|----2-----2---|----0-----0---|
--2---2-2---2-|--2---2-2---2-|--3---3-3---3-|--3---3-2---2-|
-0-0-0-0-0-0--|--------------|--------------|-3-3-3-3-3-3--|
--------------|-0-0-0-0-0-0--|-1-1-1-1-1-1--|--------------|


Verse 1
 Am E F C D/F# F *
Underneath the echoes buried in the shadows, there you were
  Am E F C D/F# F 
Drawn into your mystery, I was just beginning to see your ghost
     D/F# F 
But you must know I'll

*(D/ F# F  )          
--------------|--------------|
--------------|--------------|
----2-----2---|----2-----2---|
--0---0-0---0-|--3---3-3---3-|
--------------|--------------|
-2-2-2-2-2-2--|-1-1-1-1-1-1--|


Chorus
  C G/B Am F 
Be here waiting, hoping, praying
   C E Am F 
That this light will guide you home
   C G/B Am F                  
When you're feeling lost I'll leave my
  C E Am F Am 
Love hidden in the sun for when the darkness comes


Int  ( Am )    | E      | F      | Csus C    ||


Verse 2
 Am E F C D/F# F      
Now the door is open the world I knew is broken, there's no return 
  Am E F C D/F# F 
Now my heart is not scared just knowing that you're out there watching me
 D/F# F 
So believe I'll






Chorus
  C G/B Am F 
Be here waiting, hoping, praying
   C E Am F 
That this light will guide you home
   C G/B Am F                  
When you're feeling lost I'll leave my
  C E Am F Am 
Love hidden in the sun for when the darkness comes


Int  ( Am )    | E       | F       | C                 |  Am     | E      | F      | C      | 
                            (When the darkness comes)
  
      D/F#     | F       | D/F#    | F       ||


Chorus
  C G/B Am F 
Be here waiting, hoping, praying
   C E Am F 
That this light will guide you home
   C G/B Am F                  
When you're feeling lost I'll leave my
  C E Am F C G/B Am F C 
Love hidden in the sun for when the darkness comes
  E Am F Am E F Csus C 
Hidden in the sun for when the darkness comes


Darkness Acoustic chords – Imagine Dragons

 Capo 7

Intro
E|----------------------------------|
B|---------------10-8--10-8---------|
G|--------9-10-------9------9-7-----|
D|10-12-----------------------------|
A|----------------------------------|
E|----------------------------------|

Verse 1
 C 
I can never leave you when you're lying in the bed
face to the wall, I slept on the floor
 G 
What did you mean by that
What did you mean by that
 Am 
Take it as a self invitation
Take it as you own means of salvation
If I could take it back
If I could take it all back

Chorus
 C 
Nothing is forgiven unless you want it to be
 Am 
And if its too late for deciding oh just leave it to me
 F 
Stay with me x4
                          G 
Stay with me please
Caus Im living, living
Living in the darkness

Verse 2
I could never beat it when you needed me the most
The more I try the less you try to come
How could I live like that
How could I live like that
Take it as a self indication
Take it as  your own means of indication
If I could take it all
If I could take it all back

Chorus

Interlude = Chorus Chords

Chorus (only vocals)

Chorus (with instruments)

Darkness chords – Meredith

 darkness by meredith

                       Am F 
see the saturn bow 
                         C 
tied round your neck
         Am F C 
and i wonder why you always look so sad
                         Am F 
seems you got it all
                    C 
so why you hiding
                     Am F C 
behind your long sleeve shirts that hide the scars of a billion little lies

         Am F C                       
and you know that they cant get you anymore
         Am F C                                               
and you fear theyre just around the corner
just around the corner
         Am F C 
the darkness behind your eyes
         Am F C 
the darkness you try to hide
         Am F C 
the darkness the lies theyre in your eyes
         Am F C 
the darkness you hide so well

see you turn the page
of the book youre reading
story that tells a tale the words and the one youve already lived
seems the more i give
the less you take
but aint that the tale of a classic heart break

and you know know that they cant get you anymore
and you fear theyre just around the corner
just around the corner
the darkness behind your eyes
the darkness you try to hide
the darkness the lies theyre in your eyes
the darkness you hide so well

         Am F C 
and you know that your thoughts will get you running circles round your feet
         Am F C 
and you know that your mind is just the silence that your heart speaks  
 Am F C 
woah    woah
 Am F C 
woah    woah

and you know that they cant get you anymore
and you fear theyre just around the corner
just around the corner
the darkness behind your eyes
the darkness you try hide
the darkness the lies theyre in your eyes
the darkness you hide so well
the darkness you hide so well

http://www.triplejunearthed.com/Meredith

Come Darkness Come Light chords – Mary Chapin Carpenter

 COME DARKNESS, COME LIGHT
 G G .                        C 
Come darkness, come light
 G .                        D7 
Come new star, shining bright
 G C Am 
Come love to this world tonight
 D7 .      G 
Alleluia

Come broken, come whole
Come wounded in your soul
Come anyway that you know
Alleluia

There's a humble stable and a light within
There's an angel hovering and three wise men
Today a baby's born in Bethlehem
Alleluia

Instrumental interlude 

Come doubting, come sure
Come fearful to this door
Come see what love is for
Alleluia

Come running, come walking slow
Come weary on your broken road
Come see Him and shed your heavy load
Alleluia

There's a humble stable and a light within
There's an angel hovering and three wise men
Today a baby's born in Bethlehem
Alleluia

Come darkness come light
Come new star burning bright
Come love to this world tonight
Alleluia

Come darkness come light
Come new star burning bright
Come love to this world tonight
Alleluia
 G .         Am D G 
There's a humble stable...alleluia

And a light within...alleluia

Today a baby's born... Alleluia

All Who Remain Tabs by Beware Of Darkness

 -------------------------------------------------------------------------------
                             All Who remain - Beware Of Darkness
-------------------------------------------------------------------------------
:Tristan Jacobo
Tnj.Jacobo

Tuning:Eadgbe
Amazing Song by an Amazing band.



            Main Progression                           Not too sure about the final chord
e|-------------------------------------------------------------x-------------|
B|-------------------------------------------------------------2-------------|
G|-------------------------------------------------------------3-------------|
D|-4----6----7----9----11----7----4------------repeat----------3-------------|
A|-0----2----4----7----7-----4----0----------------------------x-------------|
E|-------------------------------------------------------------x-------------|

e|---------------------------------------------------------------------------|
B|---------------------------------------------------------------------------|
G|---------------------------------------------------------------------------|
D|-4----6----7----9----11---9--7------7----4-------------------played live---|
A|-0----2----4----7----7----7--7------4----0---------------------------------|
E|---------------------------------------------------------------------------|
            extra riffs
e|---------------------------------------------------------------------------|
B|----5\3--------------------------------------------------------------------|
G|--------2------------------------------------2-----------------------------|
D|-----------4b----------------------3h5p3-----------palm mute---------------|
A|---------------------------------------------------------------------------|
E|---------------------------------------------------------------------------|
           Pre-chorus
e|---------------------------------------------------------------------------|
B|---------------------------------------------------------------------------|
G|---------------------------------------------------------------------------|
D|---------------------------------------------------------------------------|
A|---------------------------------------------------------------------------|
E|---0000-2222-4444-5555-x4-----------------------------palm mute everything-|
       At the last pre chorus play this and it returns to the chorus
e|---------------------------------------------------------------------------|
B|---------------------------------------------------------------------------|
G|---------------------------------------------------------------------------|
D|------4444444444444--------------------------------------------------------|
A|------0000000000000--------------------------------------------------------|
E|---------------------------------------------------------------------------|
      solo         *i don't know the solo exactly but this is about right
e|--------5-5-9b--5/17--17---------------------------------------------------|
B|---\5555-5---------------17b-----------------------------------------------|
G|----------------------------16b--14----------------------------------------|
D|---------------------------------------------------------------------------|
A|---------------------------------------------------------------------------|
E|---------------------------------------------------------------------------|
                  Lyrics
Tell the one above he’s a criminal
For taking and giving life like marble candy
Everything collapses around me
Overwhelms and astounds me
A Terrible Truth

When you leave this life, the world will be a darker place for
All Who Remain
The light you gave the human race will go away…

I see you every time that I close my eyes
I Hum every lullaby that you used to sing
You never know the last time you’ll see someone
So give them all of your love
C

Truth Chords – Alexander Ebert V2

 Truth - Alexander Ebert

Intro (with whistle)  Gm A# Gm A# Gm D# A# F Gm 
Truth.
 Gm 
The truth is that I never shook my shadow

Every day it's trying to trick me into doing battle
                 A# 
Calling out 'faker' only get me rattled

Wanna pull me back behind the fence with the cattle
 Gm 
Building your lenses
Digging your trenches
Put me on the front line
Leave me with a dumb mind
                 A# 
With no defenses
But your defense is
If you can't stand to feel the pain then you are senseless

Since this,
 Gm 
I've grown up some
Different kinda figther
And when the darkness come, let it inside you
 D# 
Your darkness is shining
My darkness is shining
 A# F 
Have faith in myself
 Gm 
Truth.
 Gm 
I've seen a million numbered doors on the horizon
Now which is the future you choosen before you gone dying
                         A# 
I'll tell you about a secret I've been undermining
Every little lie in this world comes from dividing
                    Gm 
Say you're my lover
say you're my homie
Tilt my chin back, slit my troath
                                         A# 
Take a bath in my blood, get to know me
All out of my secrets
All my enemies are turning into my teachers

Because
 Gm 
Light's blinding
No way dividing
What's yours or mine when everything's shining
 D# 
Your darkness is shining
My darkness is shining
 A# F 
Have faith in ourselves
 Gm 
Truth.

(Yeah)

|-------------|
|-------------|
|-------------|
|-------------|
|-------------|
|3-3-5-6-5-6--|

 A# F 
Yes I'm only loving, only trying to only love
                                                    Gm 
And yes, that's what I'm trying to is only loving

Yes I'm only loving, trying to only love
                                                A# 
I swear to god I'm only trying to be loving
                            F 
Yes I'm only lonely loving
                                                      Gm 
And yes I'm only feeling only loving, only loving
                                                 A# 
Ya say it ain't loving, loving but my loving
                     F 
I wanna only love til I'm only loving
                                 Gm 
I swear to god I'm only loving.
                                                                         A# 
Trying to be loving, loving, loving, loving, loving, loving, love
                                     F 
Yes I'm only loving, yes I'm trying to only love
                                                 Gm 
I swear to god I'm trying but I'm only loving
                                                                 A# 
Ya say it ain't loving, loving, loving, loving, love my love
                    F 
But I'm only loving, loving, loving
        Gm 
The Truth.

More lyrics: http://www.lyricsmania.com/truth_lyrics_alexander_ebert.html
All about Alexander Ebert: http://www.musictory.com/music/Alexander+Ebert

Jesus You Are Hear With Me Chords – Ryan Hudak

 -------------------------------------------------------------------------------
                             SONG NAME - Jesus you are hear with me  Artist Name - Ryan Hudak
-------------------------------------------------------------------------------
Chords by: Ryan Hudak
 guitarhudak

Riff  ( C ) Picking
e|-------------------|
B|-3--3--3-----------|
G|-0--0--0-----------|
D|-2--2--2--2-2------|
A|-3--3--3-----------|
E|-------------------|




Verse : 1

 C F 
Your love is healing power
 C F 
Your grace has freed us all
          Am E 
Your word has been spoken
           F D 
To us all, To us all


Pre Chorus
                           C 
Your name frees us
                                G 
Your name we will shout
                        Am 
Your name is greater
                      F 
Then anyone of us


Chorus : 1
 C F 
Jesus you are hear with me
                                         Am 
How much better could that be
                 G 
Know one els
                     C F 
You have sacrificed your self
                Am 
At your throne
              G C 
we will wait for you lord


Verse : 2
 C F 
The day turns night
                                       Am 
And the darkness stays night
                        G C 
We found you hear to bring back the light
                 Am 
Then you shine
                             G 
Across the whole sky
                                 D 
We want to see you God
                       G 
Open up our eyes


Chorus : 2
 C F 
Jesus you are hear with me
                                         Am 
How much better could that be
                 G 
Know one els
                   C F 
You have sacrificed your self
                Am 
At your throne
              G C 
We will wait for you lord


( Repeat Chorus )

And then end

I Will Remember You Chords – Sarah Mclachlan V5

 I Will Remember You
By: Sarah Mclachlan
Chords by: clarebear734
 G C Dsus4 D 
I will remember you
 G C D7 
Will you remember me?
 G C G Em7 
Don't let your life pass you by
 G Csus2 D7 G 
Weep not for the memories

 G C D 
I'm so tired but I can't sleep
 G C D Em 
Standin' on the edge of something much too deep
 G C D 
It's funny how we feel so much but we cannot say a word
               G C D             
Though we are screaming inside oh we can't be heard

 G C Dsus4 D 
I will remember you
 G C D7 
Will you remember me?
 G C G Em7 
Don't let your life pass you by
 G Csus2 D7 G 
Weep not for the memories

Instrumental:  G C Dsus4 D G C Em7 G C D G C D7 G C D 
I'm so afraid to love you, but more afraid to loose
 G C D Em7 
Clinging to a past that doesn't let me choose
     G C D 
But once there was a darkness, deep and endless night
     G C D 
You gave me everything you had, oh you gave me light


 G C G 
I will remember you
 G C D7 
Will you remember me?
 G C G Em7 
Don't let your life pass you by
 G Csus2 D7 G 
Weep not for the memories

 G C G 
I will remember you
 G C D7 
Will you remember me?
 G C G Em7 
Don't let your life pass you by
 G Csus2 D7 G 
Weep not for the memories

I Am Made Of You Chords – Alice Cooper V2

 -------------------------------------------------------------------------------
                             I AM MADE OF YOU - Alice Cooper
-------------------------------------------------------------------------------
: Tristan Bourvon
 tristanbourvon(AT)yahoo.fr

Tuning: Standard

-------------------------------------------------------------------------------

INTRO
 Am Am Am Am 


VERSE 1
            F G 
In the beginning
              Am 
I was just a shadow
( G )         F G 
In the beginning
         Am 
I was alone
( G )         F G 
In the beginning I was blind,
              Am 
living in a world devoid of light
( G )         F G 
In the beginning
                 Am B C D 
there was only night


BRIDGE 1
          F G 
I was shattered, left in pieces
       Am                    ( G )
And I felt so cold inside
          F G 
Then I called you from the darkness
          Asus4 A 
Where I hide


CHORUS
( G )           F G  
I am made of you
              Am 
I am made of you
( G )           F G  
I am made of you
              Am 
I am made of you


VERSE 2
            F G 
In the beginning
              Am 
you were revelation
  ( G )         F G 
A river of salvation
               Am B C D 
and now I believe


BRIDGE 2
         F G  
All I wanted, all I needed
         Am                 ( G )
Was someone to rescue me
          F G 
I was drowning, I was dying
           Asus4 A 
Now I'm free


CHORUS
( G )           F G  
I am made of you
              Am 
I am made of you
( G )           F G  
I am made of you
              Am 
I am made of you


SOLO
 F G Am  ( G )


BRIDGE 3
         F G 
Here I am now, I can stand now
            Am                        ( G )
Cause your love has made me strong
        F G 
And forever you're the singer
           Asus4 A 
I'm the song


CHORUS
( G )           F G  
I am made of you
              Am 
I am made of you
( G )           F G  
I am made of you
              Am 
I am made of you


CHORUS
( G )           F G  
I am made of you
              Am 
I am made of you
( G )           F G  
I am made of you
              Am 
I am made of you


OUTRO
 F G Am Am