Tag: daughter

Warbringers – Jaina Daughter Of The Sea chords by Misc Computer Games

[Verse 1]
   Am               G              Am 
Beware, beware The Daughter of the Sea
 Am       G          Am 
Beware, I heard him cry
    Am     G                     Am 
His words carried upon the ocean breeze
       Em               Am 
As he sank beneath the tide

[Verse 2]
       Am           G             Am 
Those blood-soaked shores of Kalimdor
       Am     G           Am 
Where sailors fought and died
     Am      G           Am 
The admiral fell at Theremore
   Em                 Am 
Because she left his side.

[Chorus 1]
    G 
Why this? Why this?
    Am 
Oh, Daughter of the sea?
    G                                 Am 
Why this? Did you forget your seaside days?
  G              Am 
Always the pride of our nation's eyes.
    Em           Am 
How could she go astray?

[Verse 3]
     Am              G              Am 
When she did flee across the ocean deep
    Am       G        Am 
The admiral followed west
      Am 
What else but sail
    G                Am 
To save a daughter's life
     Em                  Am 
And pray she still drew breath?

[Verse 4]
     Am 
But there he found
  G                 Am 
Upon those distant shores
 Am       G       Am 
Enemies ´pon the rise!
     Am                 G      Am 
But when he faced thos savage foes
     Em              Am 
His daughter stood aside.

[Chorus 2]
    G            Am 
And buried deep beneath the waves.
   G             Am 
Betrayed by family.
        G      Am 
To his nation, with his last breath, cried
           Em              Am 
Beware the Daughter of the Sea.

[Verse 5]
  Am 
I heard, I heard
   G              Am 
Across a moonlit sea.
     Am 
The old voice warning me
 Am                 G              Am 
Beware, beware the Daughter of the sea
  Em              Am 
Beware, beware of me.

A Hole In The Earth chords by Daughter

FM7sus2 (in Outro)
e|-0--|
B|-1--|  
G|-0--|  
D|-3--|  
A|-x--|
E|-x--|  

[Intro]
Am Asus2 Em FM7

[Verse]
Am         FM7
In my own turn
     Em                    F6                     Am
I'm trying to reach out I know I'll get there soon
                       FM7
There's a hole in the earth here
           Em               F
And we're walking round the edges

[Pre-Chorus]
Am                 Em
You were flaunting all your open wounds
FM7                   F
I can't express them better than you

[Chorus]
C                 Am          Asus2
You have buried childish qualities
Em                   Esus4  F                   Fadd9
Friend make sense of me, friend make sense of me
C                Am          Asus2
I have many destructive qualities
Em                   Esus4  F                   Fadd9
Friend make sense of me, friend make sense of me

[Interlude]
Am F C G

[Verse]
Am               FM7  F
  It's like an old   ruin
      C                        G        G7
Your father's a liar while my father's lying down
Am                  F
  In a hole in the earth there
     C                 G7     G13
And I'm scared I'll forget him

[Pre-Chorus]
Am                Em
I'm still haunted by those open wounds
FM7                    F
I won't express them truly to you

[Chorus]
C                 Am          Asus2
You have buried childish qualities
Em                   Esus4  F                   Fadd9
Friend make sense of me, friend make sense of me
C                Am          Asus2
I have many destructive qualities
Em                   Esus4  F                   Fadd9
Friend make sense of me, friend make sense of me

[Interlude]
Am Em F

[Bridge]
Am              G
I have so much hurt inside me
  Em                       F
Friend make sense of me, friend make sense of me
Am              G
I have so much hurt inside me
  Em                       F
Friend make sense of me, friend make sense of me

[Outro]
Am      FM7sus2 F
Friend
   Em    G   Gadd9
Friend
(x2)

Am    FM7sus2    F
Em               G        Gadd9
Am    E7sus4 FM7 F
Em               G        Gadd9
Am    FM7sus2    F
Em               G        Gadd9
Am    E7sus4     F        Fadd9
Em               G        Gadd9
Am    FM7sus2    F
Em               G        Gadd9

Youth chords – Daughter V3

 Youth, Daughter
If You Leave, 2013

Great song by Daughter. 

As the other versions seem slightly inaccurate I decided to tab this. 
These are the chords that they used in several live performances.
The cord names are given relative to the capo.
G/D can be played easiest with a barre on the 3th fret.

Please share and comment to make this available to everyone.

Hope you like it! J.


Capo 5th Fret.

 G/B C Em Gmaj7/D G/D           
e|-x-|  e|-x-|  e|-x-|   e|-x-|   e|-3-|
B|-3-|  B|-5-|  B|-8-|   B|-7-|   B|-3-|
G|-0-|  G|-0-|  G|-0-|   G|-0-|   G|-4-|
D|-x-|  D|-x-|  D|-x-|   D|-x-|   D|-5-|
A|-2-|  A|-3-|  A|-7-|   A|-5-|   A|-5-|
E|-x-|  E|-x-|  E|-x-|   E|-x-|   E|-x-|


Intro:

 G/B C Em Gmaj7/D G/B C Em Gmaj7/D 


Verse: 

 G/B C Em Gmaj7/D 
  Shadows settle on the place  that you left.
 G/B C Em Gmaj7/D 
  Our minds are troubled by the emptiness.
 G/B C Em Gmaj7/D 
  Destroy the middle, it's a waste of time.
          G/B C Em Gmaj7/D 
From the perfect start to the finish line.


Chorus:

        G/B C Em Gmaj7/D 
And if you're still breathing, you're the lucky ones.
        G/B C Em Gmaj7/D 
'Cause most of us are heaving through corrupted lungs.
         G/B C Em Gmaj7/D 
Setting fire to our insides for fun
            G/B C Em         
Collecting names of the lovers that went wrong
     Gmaj7/D 
The lovers that went wrong.


Interlude: Bass plays a B on fourth chords.

 Em Em C Gmaj7/D Em Em C Gmaj7/D 


Verse:

 G/B C Em Gmaj7/D 
  We are the reckless, we are the wild youth
         G/B C Em Gmaj7/D 
Chasing visions of our futures
     G/B C Em Gmaj7/D 
One day we'll reveal the truth
               G/B C Em Gmaj7/D 
That one will die before he gets there.


Chorus:

        G/B C Em Gmaj7/D 
And if you're still bleeding, you're the lucky ones.
        G/B C Em Gmaj7/D 
'Cause most of our feelings, they are dead and they are gone.
                G/B C Em Gmaj7/D 
We're setting fire to our insides for fun.
            G/B C Em        
Collecting pictures from the flood that wrecked our home,
          Gmaj7/D 
It was a flood that wrecked this... 


Bridge: (bass plays B under Gmaj7/D)

 Em C Gmaj7/D Em C Gmaj7/D  
  And you caused it,
                  Em C Gmaj7/D  
  And you caused it,
                  Em C Gmaj7/D  
  And you caused it,


Verse:

 G/B C Em Gmaj7/D 
Well I've lost it all, I'm just a silouhette, 
   G/B C Em Gmaj7/D 
A lifeless face that you'll soon forget, 
    G/B C Em Gmaj7/D 
My eyes are damp from the words you left, 
         G/B C Em Gmaj7/D 
R

Perth Ready For The Flood Live Tabs by Daughter

 Drop D Tuning

-x---x---x---x--            -x---x---x--x---x--
-x---x---x---x--            -x---x---x--x---x--
-4---7---2---4--   Verse    -4---11--7--6---4--   Chorus
-x---x---x---x--            -x---x---x--x---x--
-x---x---x---x--            -x---x---x--x---x--
-5---9---0---5--            -5---12--9--7---5--
 G   Bm  D   G               G   D  Bm  A   G

Intro (same as verse) - x2

Verse - x4

Chorus - x2

Verse - x4

Chorus - x2

Verse - x2

Chorus - x2

Verse - x2

Ronia The Robbers Daughter Tabs by Misc Soundtrack

 Fingerstyleguitar-TAB for 'Skid Över Skog' by Bjorn Isvalt from the 'Ronia The 
Robber's Daughter' OST: 



(for video: Capo on 2)


p = right hand thumb
i = right hand index finger
m = right hand middle finger

h = hammer-on
p = pull-off
\ = slide

   G               C               F       G         C
e|----------------|--------------0|1-----0----------|0--------------------|
B|-3---3---0------|1-----------3--|--1-----3-----1h3|--1---1---------0h1--|
G|---0---0---0---0|--0---0---0----|----2-----0------|----0-----0--0h2-----|
D|-----0-------0--|----2----------|3-----------0----|---------------------|
A|----------------|3-------3------|-----------------|3-------3------------|
E|-3-------3------|---------------|--------3--------|---------------------|
   m i m i m i   i m i   i   i m i m i   i m i   i   m i   i   i  m  i
   p   p   p   p   p   p   p       p   p   p   p     p   p   p

   G               C               F      G          C
e|----------------|--------------0|1p0--------------|---------------------|
B|-3---3---0------|1-----------3--|---3-1-3-----1---|1--------------------|
G|---0---0---0---0|--0---0---0----|---------0-------|--0---0---0---0------|
D|-----0-------0--|----2----------|3----------0-----|----2-------2--------|
A|----------------|3-------3------|-----------------|3-------3------------|
E|-3-------3------|---------------|-------3---------|---------------------|
   m i m i m i p i m i   i   i m i m  m i m i   i    m i   i   i   i
   p   p   p       p   p   p       p      p   p      p   p   p   p 

   A               D               F#               Bm
e|---------5------|0h2-2----------|2-----0---------|0--------------------0-2|
B|-5---5---------5|------3---3---3|--2-----3\2--2-3|--3---0h2-3-------------|
G|---2---2---2----|----2-------2--|----3------3----|----4-------4---4---4---|
D|-----2-------2--|0-------0------|4-------4-------|4-------------4---------|
A|-0-------0------|---------------|----------------|----------2-------2-----|
E|----------------|---------------|----------------|------------------------|
   m i m i m i   i m   m i   i   i m i   m i    m i m i   i   m i   i   im i
   p   p   p   p   p   p   p   p   p   p   p  p     p   p     p   p   p

   G       A         D       G         C       F#        B/F#
e|-3-------3h5p3-2-0|2-------2h3p2-0--|0-------0h2p0----|---------------|
B|---0---0----------|--3---3---------3|--1---1-------4-2|4-------4---2--|
G|-----0------------|----2---0--------|----0---3--------|--4---4---4---4|
D|------------------|0----------------|-----------------|4---4---4---4--|
A|---------0--------|-----------------|3----------------|---------------|
E|-3----------------|-----------------|-----------------|---------------|
   m i   i m     m i m i   i m     m i m i   i m     m i m i   i m i m i
   p   p   p         p   p   p         p   p   p         p   p   p   p

  B/F#               E
e|------------------|0---------------|repeat from start
B|-0-------0--------|--------0-------|
G|---4---4---4---4--|--1---1---1---1-|
D|-4---4---4---4----|----2-------2---|
A|------------------|----------------|
E|------------------|0-------0-------|
   m i   i m   m  i  m i   i m i   i
   p   p   p         p   p   p   p

Amsterdam Tabs by Daughter V4

 Artist: Daughter
Title: Amsterdam
 If You Leave
Year: 2012

Standard tuning, No capo
First tab I've submitted and I figured this out entirely by ear but I'm sure it's mostly correct.

Chords are Am, G, Em, F. (Although not too sure about the Em, but it sounds okay.)

It's the same all the way through except for the bridge, (two thirds of the way through) 
where there's a different pattern for 20 bars until the original pattern comes in again 
over the top.


General pattern (Intro, verse and chorus):
  Am                      G                        Em
e|-----------------------|------------------------|------------------------|
B|-----------------------|------------------------|------------------------|
G|-----------------------|------------------------|------------------------|
D|---2----2-----2-----2--|---2-----2-----2--------|---0-----0-----0-----0--|
A|0----0-----0-----0-----|---------------------3--|------------------------|
E|-----------------------|3-----3-----3-----1-----|3-----3-----3-----3-----|

 F
|------------------------|
|------------------------|
|------------------------|
|---0-----0-----0--------|
|---------------------3--|
|1-----1-----1-----1-----|


Bridge (Two thirds of the way through):
 Am                               G
|----12------12------12------12--|----10------10------10------10--|
|13------13------13------13------|12------12------12------12------|
|--------------------------------|--------------------------------|
|--------------------------------|--------------------------------|
|--------------------------------|--------------------------------|
|--------------------------------|--------------------------------|

 Em                               F
|----10------10------10------10--|----8------8------8------8--|
|12------12------12------12------|10-----10-----10-----10-----|
|--------------------------------|----------------------------|
|--------------------------------|----------------------------|
|--------------------------------|----------------------------|
|--------------------------------|----------------------------|

Lyrics:
Skin off like lightning
Breathing flames from thoraces tray
Your eyes go gray finding
You lock your gaze on to my face

Heavy eye clothing on the roadside
Swinging from the street lights

I hope by the morning I will have grown back
By the morning I will have grown back
I'll escape with him
Show him all my skin
Then I'll go
I'll go home
Amsterdam

I'm a flying kite in the breeze just
Restlessly seeking images a child needs to help them sleep
I was thinking that I should see someone
Just to find out that I'm alright

By the morning I would've grown back
By the morning I would've grown back
I'll escape with him
Showing all my skin
Then I'll go
I'll go home
Amsterdam

I used to dream of
Adventure
When I was younger
With lungs miniature
Good night with killing
Our brain cells
Is this called living
Or something else
Or something else

By the morning I would've grown back x4

:)

Blowers Daughter chords – Damien Rice V6

 The Blower's Daughter by Damien Rice

 E  022100     A  077600    B  099800    C#m  046600     G#m   066400      Esus4  022200
 F#m  044200   F#  244322    C#sus2  466444   G#m  466444    Bsus2  224422   B  799877
 A#m  688666   D#m  668876    C#  446664                      
 
        
   E 
And so it is
                      A 
Just like you said it would be
              B 
Life goes easy on me
 A E \~  Esus4 \~ E 
Most of the time
 
    E 
And so it is
           A 
The shorter story
           B 
No love, no glory
           C#m 
No hero in her sky

         A 
I can\'t take my eyes off of you
         G#m   
I can\'t take my eyes off you
            F#m 
I can\'t take my eyes off of you
            E 
I can\'t take my eyes off you
            A B 
I can\'t take my eyes off you
                  A B E \~  Esus4 \~ E                  
I can\'t take my eyes...        

 E 
And so it is
         E A      
Just like you said it should be
                         B 
We'll both forget the breeze
 A E 
Most of the time

 E 
And so it is
 E A 
The colder water
 A B 
The blower's daughter
         C#m 
The pupil in denial
           A 
I can't take my eyes off of you
            G#m 
I can't take my eyes off you
            F#m 
I can't take my eyes off of you
            E 
I can't take my eyes off you
            A B 
I can't take my eyes off you
            A B                       
I can't take my eyes...
    
(To rich sound of chords in this verse I use Barcode)

 F# 
Oooooooooohh
                    Bsus2 
Did I say that I loathe you?
 C#sus2                
Did I say that I want to
                 C# 
Leave it all behind?           
               B 
I can\'t take my mind off of you
               A#m 
I can\'t take my mind off you
               G#m 
I can\'t take my mind off of you
               F# 
I can\'t take my mind off you
             B C# 
I can\'t take my mind off you
         B 
I can\'t take my mind...
         B 
My mind...my mind...

'Til I find somebody new

For The Keeping chords – Wayward Daughter

 G :320033
 D/F# :20023X
 Em :022033
 Cadd9 :032033
 Em9 :054030

(Note: Verses can also be alternated G and D/F# only)

            G 
Close the door
                       D/F#             
I don't wanna let the cold in
            Em Cadd9 
Cause the night is getting older and I'm tired

           G  
Hold me close
                         D/F# 
And I won't let another soul in
                Em Cadd9 
Cause you are everything and all I need tonight


Chorus: 
      Em Cadd9 
You have my heart
        G D/F# 
Yours for the keeping
     Em Cadd9 G Cadd9 
You are the first thing I believed in
     Em Cadd9 G Cadd9       
And now I'm yours and you are mine tonight


 Em Cadd9 Em9 G 
Take my hand
                             D/F# 
Cause I don't want to be without you
           Em Cadd9 
You're my anchor and my lighthouse in the storm

           G 
Lead the way
                               D/F# 
Cause I don't want to walk without you
             Em Cadd9 
You're the rose amongst a bitter world of thorns

Chorus:
      Em Cadd9 
You have my heart
       G D/F# 
Yours for the keeping
     Em Cadd9 G D/F# 
You are the first thing I believed in
     Em Cadd9 G D/F# 
And now I'm yours and you are mine tonight

 Em Cadd9 Em9 Em Cadd9 
My heart is yours
       G D/F# 
It's clean and healing
         Em Cadd9 G D/F# 
You've closed the wounds and stopped the bleeding
       Em Cadd9 G D/F# 
I'll give you all I am, give you my life

 Em Cadd9 G D/F# Em Cadd9 G D/F# 
And I will never let you down
     Em Cadd9 G D/F# 
And I will never turn away
     Em Cadd9 G D/F# 
And I will never be alone another day
                Em Cadd9 G 
Cause you are everything and all I need tonight

      Em Cadd9 
You have my heart
        G D/F# 
Yours for the keeping
     Em Cadd9 G D/F# 
You are the first thing I believed in
     Em Cadd9 G D/F# 
And now I'm yours and you are mine tonight

 Em Cadd9 Em9 Em Cadd9 
My heart is yours
       G D/F# 
It's clean and healing
         Em Cadd9 G D/F#    
You've closed the wounds and stopped the bleeding
       Em Cadd9 G D/F# 
I'll give you all I am, give you my life

Promiscuous Daughter Tabs by Cky V2

 Song:Promiscuous Daughter
Volume 1
Artist:CKY
Genre:Alternative Metal
Year:1999
Tuning:Whole-Step Down

Verse 1 Pt.1 x2 (Distortion)
D---------------------|
A---------------------|
F---------------------|
C-22222222--55555555--|
G-22222222--55555555--|
D-00000000--33333333--|

Verse 1 Pt.2 x2 (Distortion)
D-------------|
A-------------|
F-------------|
C-22--55--55--|
G-22--55--55--|
D-00--33--33--|

Verse 1 Pt.3 x4 (Distortion)
D-----------------------------|
A-----------------------------|
F-----------------------------|
C-99999999--1212121212121212--|
G-77777777---9-9-9-9-9-9-9-9--|
D-----------------------------|

Verse 1 Pt.4 x3 (Distortion)
D---------------------|
A---------------------|
F---------------------|
C-22222222--55555555--|
G-22222222--55555555--|
D-00000000--33333333--|

Pre-Bridge x1 (Distortion)
D---------------------------|
A---------------------------|
F---------------------------|
C-22222222--5---------------|
G-22222222--5---------------|
D-00000000--3--2~~~~~~~~~~--|

Bridge Pt.1 x3 (Clean)
D-----------------------------------|
A-----------------------------------|
F------4-4--2-2--0-2-0--2/4-0--2----|
C-0-2----------------------------0--|
G-----------------------------------|
D-----------------------------------|

Bridge Pt.2 x1 (Clean)
D---------------------------|
A---------------------------|
F-----4-4--2-2--7-7-7/9~~~--|
C-0-2-----------------------|
G---------------------------|
D---------------------------|

Bridge Pt.3 x1 (Distortion)
D-------------------------------|
A-------------------------------|
F-------------------------------|
C-------------------------------|
G----/7-4-----------------------|
D-0-------7--0-3-3/5--3/5--0-0--|

D-----------------------------|
A-----------------------------|
F-----------------------------|
C-----------------------------|
G-/7-4------------------------|
D------7--0-3-3/5--3/5--0~~~--|

D----------------------------|
A----------------------------|
F----------------------------|
C----------------------------|
G-/7-4-----------------------|
D------7--0-3-3/5--3/5--0-0--|

D----------------------------|
A----------------------------|
F----------------------------|
C----------------------------|
G-/7-4-----------------------|
D------7--0-3-3/5--3/5--0-0--|

D----------------------------|
A----------------------------|
F----------------------------|
C----------------------------|
G-/7-4-----------------------|
D------7--0-3-3/5--3/5--0-0--|

D-----------------------------|
A-----------------------------|
F-----------------------------|
C-----------------------------|
G-/7-4------------------------|
D------7--0-3-3/5--3/5--0~~~--|

D----------------------------|
A----------------------------|
F----------------------------|
C----------------------------|
G-/7-4-----------------------|
D------7--0-3-3/5--3/5--0-0--|

D--------------------------|
A--------------------------|
F--------------------------|
C--------------------------|
G-/7-4---------------------|
D------7--0-3-3/5--3/5--0--|

Interlude 1 Pt.1 x2 (Distortion)
D------------------------------------|
A------------------------------------|
F------------------------------------|
C-X-X-X-X-X-X-X-X-X-X--1212-XX-1212--|
G-X-X-X-X-X-X-X-X-X-X---9-9-XX--9-9--|
D------------------------------------|

Interlude 1 Pt.2 x6 (Distortion)
D-----------------------------|
A-----------------------------|
F-----------------------------|
C-99999999--1212121212121212--|
G-77777777---9-9-9-9-9-9-9-9--|
D-----------------------------|

Outro 1 Pt.1 x4 (Distortion)
D---------------------|
A---------------------|
F---------------------|
C-2-2-2-22--5-5-5-55--|
G-2-2-2-22--5-5-5-55--|
D-0-0-0-00--3-3-3-33--|

Outro 1 Pt.2 x1 (Distortion)
D-------------------------------|
A-------------------------------|
F-------------------------------|
C-------------------------------|

Amsterdam Tabs by Daughter V2

 Amsterdam
Daughter


Capo 3


e|-----------------|-----------------|-----------------|-----------------|
B|-----------------|-----------------|-----------------|-----------------|
G|-----------------|-----------------|-----------------|-----------------|
D|-----------------|-----------------|-----------------|-----------------|
A|---4---4---4---4-|---4---4---4---2-|---2---2---2---2-|---2---2---2---0-|
E|-2---2---2---2---|-0---0---0---0---|-2---2---2---2---|-0---0---0---0---|