Tag: dead

Dead chords by Madison Beer

[Verse]
             Dm
You could be here, but you're there
               F                                Gm         Bb
You could be anywhere and these days I don't even care no more
             Dm                                     F
You only be showing me love whenever you've had too much
                          Gm            Bb
Whatever's been filling your cup, no more

[Pre-Chorus]
               Dm
Baby, no more showing up when you're not sober
 F                                 Bb          Gm
At my front door just to say you're alone tonight
          Dm
Yeah, tryna fuck me and my mind up
F                                     Bb         Gm
It's a reminder you're a liar and you know I'm right

[Chorus]
Bb                      Dm
You say you can't live without me
                    C
So why aren't you dead yet?
               C
Why you still breathing?
Bb                       Dm
If you say you can't live without me
                    C
Then why aren't you dead yet?
               C
Why do you say that?

[Verse]
             Dm                            F
You could be here but you're not, I give whatever you want
                         Gm         Bb
But you just take it and run, you run (oh run, run)
               Dm                            F
And I give you so many shots but you just drinkin' 'em all
            Gm               Bb
You never give it a thought, oh lord (yeah)

[Pre-Chorus]
               Dm
Baby, no more showing up when you're not sober (sober)
 F                                 Bb          Gm
At my front door just to say you're alone tonight (alone tonight)
          Dm
Yeah, tryna fuck me and my mind up
F                                     Bb         Gm
It's a reminder you're a liar and you know I'm right

[Chorus]
Bb                      Dm
You say you can't live without me
                    C
So why aren't you dead yet?
               C
Why you still breathing?
Bb                       Dm
If you say you can't live without me
                    C
Then why aren't you dead yet?
               C
Why do you say that?

[Bridge]
Bb
Why, why, why, why?
Dm
Why, why, why, why?
C
Why, why, why, why?
C
Why aren't you dead yet?

Bb
Be careful what you say
Dm
Say only what you mean
C
Mean to me then you're nice
C
You're nice, you're nice
Bb
It's nice to know you now
Dm
Now that it all went down
C
Down on your knees you cry
C             Gm
You cry, you cry, yeah

[Chorus]
Bb                      Dm
You say you can't live without me
                    C
So why aren't you dead yet?
               C
Why you still breathing?
Bb                       Dm
If you say you can't live without me
                    C
Then why aren't you dead yet?
               C
Why do you say that?

[Outro]
Bb
Why, why, why, why?
Dm
Why, why, why, why?
C
Why, why, why, why?
C
Why aren't you dead yet?
Bb
Why, why, why, why?
Dm
Why, why, why, why?
C
Why, why, why, why?
C
Why aren't you dead yet?

Still Not Dead Piano Chords by Willie Nelson

[Intro]
E    B    A    E
E    A    B    E

[Verse 1]
  E                                 B
I woke up still not dead again today
    A             B             E
The internet said I had passed away
E                           A
If I died I wasn't dead to stay
    B                                 E
I woke up still not dead again today

[Verse 2]
         E                                 B
Well, I woke up still not dead again today
     A                B              E
The gardener did not find me that a way
     E                                 A
You can't believe a word that people say
       B                                 E
And I woke up still not dead again today

[Chorus]
      A                            E
I run up and down the road making music as I go
      B                               E
They say my pace would kill a normal man
          A                           E
But I've never been accused of being normal anyway
       B                              E
And I woke up still not dead again today

[Instrumental]
E    B    A    E
E    A    B    E

[Verse 3]
  E                                 B
I woke up still not dead again today
     A               B               E   
The news said I was gone to my dismay
       E                           A
Don't bury me, I've got a show to play
       B                                 E
And I woke up still not dead again today

[Chorus]
      A                            E
I run up and down the road making music as I go
      B                               E
They say my pace would kill a normal man
          A                           E
But I've never been accused of being normal anyway
       B                              E
And I woke up still not dead again today
      A                                E
Last night I had a dream that I died twice yesterday
       B                             E
But I woke up still not dead again today

[Outro]
 E

Still Not Dead Chords by Willie Nelson

Still Not Dead
Recorded by Willie Nelson
Written by Willie Nelson, Buddy Cannon

Tab submitted by: Mykola Poberezhnyi

[Intro]
E    B    A    E
E    A    B    E

[Verse 1]
  E                                 B
I woke up still not dead again today
    A             B             E
The internet said I had passed away
E                           A
If I died I wasn't dead to stay
    B                                 E
I woke up still not dead again today

[Verse 2]
         E                                 B
Well, I woke up still not dead again today
     A                B              E
The gardener did not find me that a way
     E                                 A
You can't believe a word that people say
       B                                 E
And I woke up still not dead again today

[Chorus]
      A                            E
I run up and down the road making music as I go
      B                               E
They say my pace would kill a normal man
          A                           E
But I've never been accused of being normal anyway
       B                              E
And I woke up still not dead again today

[Instrumental]
E    B    A    E
E    A    B    E

[Verse 3]
  E                                 B
I woke up still not dead again today
     A               B               E   
The news said I was gone to my dismay
       E                           A
Don't bury me, I've got a show to play
       B                                 E
And I woke up still not dead again today

[Chorus]
      A                            E
I run up and down the road making music as I go
      B                               E
They say my pace would kill a normal man
          A                           E
But I've never been accused of being normal anyway
       B                              E
And I woke up still not dead again today
      A                                E
Last night I had a dream that I died twice yesterday
       B                             E
But I woke up still not dead again today

[Outro]
 E

Dear S​​a​​m Im Dead Too You Tabs – Weerd Science

 -------------------------------------------------------------------------------
                        Dear S.A.M. I'm Dead Too You - Weerd Science
-------------------------------------------------------------------------------
:fmongold       
Email:fmongold

. :)

I tabbed it the best I could from this video:


If I did something wrong please feel free to make corrections.

Tuning:Standard (EADgbe)

Main Riff
e|----------------------|
B|----------------------|
G|----------------------|
D|-------9-10---10-9h---|
A|-7-7------------------|
E|-----0----------------|

e|--------------------------------|
B|--------------------------------|
G|--------------------------------|
D|-------12-10--10/9-10h9---------|
A|-7-7--------------------10-9h/7-|
E|-----0--------------------------|

| /  slide up
| \  slide down
| h  hammer-on
| p  pull-off
| ~  vibrato
| +  harmonic
| x  Mute note

You Spin Me Right Round Tabs – Dead Or Alive Vsion 2

 Best of the 80's CD version

Intro: e|--------------------------------------------------------------------|
       B|--------------------------------------------------------------------|
       G|--------------------------------------------------------------------| X2
       D|-4-4-4-444-444444-4-4-4-444-4-7-7-9-9-9-999-999999-9-9-9-999-999999-|
       A|-4-4-4-444-444444-4-4-4-444-4-7-7-9-9-9-999-999999-9-9-9-999-999999-|
       E|-2-2-2-222-222222-2-2-2-222-2-5-5-7-7-7-777-777777-7-7-7-777-777777-|

Verse: e|--------------------------------------------------------------------|
       B|--------------------------------------------------------------------|
       G|---------------------------------------------------------------6666-| X2
       D|-4-4-4-444-444444-4-4-4-444-4-7-7-9-9-9-999-999999-9-9-9-999-996666-|
       A|-4-4-4-444-444444-4-4-4-444-4-7-7-9-9-9-999-999999-9-9-9-999-994444-|
       E|-2-2-2-222-222222-2-2-2-222-2-5-5-7-7-7-777-777777-7-7-7-777-77-----|

          If I, if I could get to know your name

          Well if I, could trace your private number, baby

Pre-Chorus: e|-----------------------------------------------------------------|
            B|-----------------------------------------------------------------|
            G|-------------------------------------------------6-6-6-6-6-6-----|
            D|-4-4-4-4-4-4-4-4-7-7-7-7-7-7-7-7-9-9-9-9-9-9-9-9-6-6-6-6-6-6-2-2-|
            A|-4-4-4-4-4-4-4-4-7-7-7-7-7-7-7-7-9-9-9-9-9-9-9-9-4-4-4-4-4-4-2-2-|
            E|-2-2-2-2-2-2-2-2-5-5-5-5-5-5-5-5-7-7-7-7-7-7-7-7-------------0-0-|

               All I know is that to me, you look like you're lots of fun

               Open up your lovin' arms 'cause I want some, want some!

Verse: e|--------------------------------------------------------------------|
       B|--------------------------------------------------------------------|
       G|---------------------------------------------------------------6666-| X2
       D|-4-4-4-444-444444-4-4-4-444-4-7-7-9-9-9-999-999999-9-9-9-999-996666-|
       A|-4-4-4-444-444444-4-4-4-444-4-7-7-9-9-9-999-999999-9-9-9-999-994444-|
       E|-2-2-2-222-222222-2-2-2-222-2-5-5-7-7-7-777-777777-7-7-7-777-77-----|

          I set my sights on you (and no one else will do)

          And I, I've got to have my way now, baby!

Pre-Chorus: e|-----------------------------------------------------------------|
            B|-----------------------------------------------------------------|
            G|-------------------------------------------------6-6-6-6-6-6-----|
            D|-4-4-4-4-4-4-4-4-7-7-7-7-7-7-7-7-9-9-9-9-9-9-9-9-6-6-6-6-6-6-2-2-|
            A|-4-4-4-4-4-4-4-4-7-7-7-7-7-7-7-7-9-9-9-9-9-9-9-9-4-4-4-4-4-4-2-2-|
            E|-2-2-2-2-2-2-2-2-5-5-5-5-5-5-5-5-7-7-7-7-7-7-7-7-------------0-0-|

               All I know is that to me, you look like you're lots of fun

               Open up your lovin' arms...Watch out here I come!

Chorus: e|-----------------------------------------------------------------|
        B|-----------------------------------------------------------------|
        G|-------------------------------------------------4-4-4-4-6-6-6-6-| X2
        D|-4-4-4-4-4-4-4-4-7-7-7-7-2-2-2-2-4-4-4-4-4-4-4-4-4-4-4-4-6-6-6-6-|
        A|-4-4-4-4-4-4-4-4-7-7-7-7-2-2-2-2-4-4-4-4-4-4-4-4-2-2-2-2-4-4-4-4-|
        E|-2-2-2-2-2-2-2-2-5-5-5-5-0-0-0-0-2-2-2-2-2-2-2-2-----------------|

           You spin me right round, baby right round like a record, baby. Right round round round.

           You spin me right round, baby right round like a record, baby. Right round round round.

Pre-Verse: e|-----------------------------------------------------------------|
           B|-----------------------------------------------------------------|
           G|-----------------7-7-7-7-6-6-6-6-4-4-4-4-4-4-4-4-6-6-6-6-6-6-6-6-|
           D|-4-4-4-4-2-2-2-2-7-7-7-7-6-6-6-6-4-4-4-4-4-4-4-4-6-6-6-6-6-6-6-6-|
           A|-4-4-4-4-2-2-2-2-5-5-5-5-4-4-4-4-2-2-2-2-2-2-

We Drag The Dead On Leashes Tabs – Being As An Ocean

 Track: We Drag The Dead On Leashes
Artist: Being As An Ocean
 How We Both Wondrously Perish (2014)
Tuning: Drop D (D A D G B e)

---

: Noah Maranesi
Website: Instagram.com/n04hz_ark

Simple, non-repeated version available at the bottom (after Outro)

---

Intro (0:05)
                                                x2
e|-----------------------------------------------|
B|-----------------------------------------------|
G|-----------------------------------------------|
D|--------4--------4--------4--------4--------0--|
A|-----5--------5--------5--------5--------7-----|
D|--5--------5--------5--------5--------7--------|


Verse (0:12)

    "We've all done things that we're ashamed of..."
                                                x3
e|-----------------------------------------------|
B|-----------------------------------------------|
G|-----------------------------------------------|
D|--------4--------4--------4--------4--------0--|
A|-----5--------5--------5--------5--------7-----|
D|--5--------5--------5--------5--------7--------|

e|-----------------------------------------------|
B|-----------------------------------------------|
G|-----------------------------------------------|
D|--------4--------4--------4--------4--------7--|
A|-----5--------5--------5--------5--------9-----|
D|--5--------5--------5--------5--------9--------|

  (Repeat Verse once again)


Post Verse (0:39)

e|------------------------------------------|
B|------------------------------------------|
G|------------------------------------------|
D|------------------------------------------|
A|------------------------------------------|
D|--(5)----(7)--(9)------(12)---(9)----(7)--|


Chorus (0:49) (Strum each chord noted twice)

    "And it seems we've been thrown into an endless cycle..."

e|-----------------------------------|
B|-----------------------------------|
G|-----------------------------------|
D|-----------------------------------|
A|--5-5-5-5-5-5-7-7-9-9-9-9-9-9-9-9--|
D|--5-5-5-5-5-5-7-7-9-9-9-9-9-9-9-9--|

e|----------------------------------|------------------|
B|----------------------------------|------------------|
G|----------------------------------|------------------|
D|----------------------------------|------------------|
A|--5-5-5-5-5-5-7-7-9-9-9-9-9-9-9-9-|-7-7-7-7-7-7-7-7--|
D|--5-5-5-5-5-5-7-7-9-9-9-9-9-9-9-9-|-7-7-7-7-7-7-7-7--|

    "Forget the things you hate in yourself..."

e|-----------------------------------|
B|-----------------------------------|
G|-----------------------------------|
D|-----------------------------------|
A|--5-5-5-5-5-5-7-7-9-9-9-9-9-9-9-9--|
D|--5-5-5-5-5-5-7-7-9-9-9-9-9-9-9-9--|

e|----------------------------------|------------------|
B|----------------------------------|------------------|
G|----------------------------------|------------------|
D|----------------------------------|------------------|
A|--5-5-5-5-5-5-7-7-9-9-9-9-9-9-9-9-|-7-7-7-7-7-7-7-7--|
D|--5-5-5-5-5-5-7-7-9-9-9-9-9-9-9-9-|-7-7-7-7-7-7-7-7--|


Re-Intro (1:22)
                                                x2
e|-----------------------------------------------|
B|-----------------------------------------------|
G|-----------------------------------------------|
D|--------4--------4--------4--------4--------0--|
A|-----5--------5--------5--------5--------7-----|
D|--5--------5--------5--------5--------7--------|

Verse (1:35) (Played twice)

    "We turn to others for some kind of safety..."
                                                x3
e|-----------------------------------------------|
B|-----------------------------------------------|
G|-----------------------------------------------|
D|--------4--------4--------4--------4--------0--|
A|-----5--------5--------5--------5--------7-----|
D|--5--------5--------5--------5--------7--------|

e|-----------------------------------------------|
B|-----------------------------------------------|
G|-----------------------------------------------|
D|-------

Guilty Youre Already Dead Tabs – Wilson

 Wilson: Guilty (You're Already Dead)

: mysticguitar77

Facebook: https://www.facebook.com/MysticGuitar77
YouTube Channel: https://www.youtube.com/user/MysticGuitar77

Date last modified: December 14, 2015

Tuning: Drop C# (C#,G#,C#,F#,A#,D#)

Riff 1
D#|---------------------------------------------------|
A#|---------------------------------------------------|
F#|---------------------------------------------------|
C#|---------------------------------------------------|
G#|-12-----------10-----------8-----------7-----------|
C#|----7--7-7--7----7--7-7--7---7--7-7--7---7--7-7--7-|

D#|---------------------------------------------|
A#|---------------------------------------------|
F#|---------------------------------------------|
C#|---------------------------------------5-7-5-|
G#|-12-----------10-----------8-----------5-7-5-|
C#|----7--7-7--7----7--7-7--7---7--7-7--7-5-7-5-|

D#|---------------------------------------------------|
A#|---------------------------------------------------|
F#|---------------------------------------------------|
C#|---------------------------------------------------|
G#|-12-----------10-----------8-----------7-----------|
C#|----7--7-7--7----7--7-7--7---7--7-7--7---7--7-7--7-|

D#|----------------------------------------------|
A#|----------------------------------------------|
F#|---------------------------------------5-7-5\-|
C#|---------------------------------------5-7-5\-|
G#|-12-----------10-----------8------------------|
C#|----7--7-7--7----7--7-7--7---7--7-7--7--------|

Fill 1
D#|---------------------------------------------|
A#|---------------------------------------------|
F#|-9--9--9--9--9--9--9--9--9--9--9--9--9--9--9-|
C#|-7--7--7--7--7--7--7--7--7--7--7--7--7--7--7-|
G#|-0--0--0--0--0--0--0--0--0--0--0--0--0--0--0-|
C#|---------------------------------------------|

Fill 1 note: Immediately mute the chords so they don't ring out.

Riff 2   "Yeah I got your number..."
D#|-------------------------------------------|
A#|-------------------------------------------|
F#|-7--9-9-7-9\------12--7--9-9-7-9\------5-7-|
C#|-7--7-7-7-7\------10--7--7-7-7-7\------5-5-|
G#|-------------------------------------------|
C#|-------------------------------------------|

D#|-------------------------------------------------------|
A#|-------------------------------------------------------|
F#|-7--9-9-7-9\------12--7--9-9-7-9\--2-2-2-2-2-2---------|
C#|-7--7-7-7-7\------10--7--7-7-7-7\--2-2-2-2-2-2-7-5-0-2-|
G#|-----------------------------------0-0-0-0-0-0-7-5-0-2-|
C#|-----------------------------------------------7-5-0-2-|
                                      * * * * * *

Riff 3   "Yeah you thought you'd take it to your grave..."
D#|---------------------------|
A#|----------------3--3-3-3---|
F#|----5--5-5------2--2-2-2---|
C#|-3--3--3-3---0--0--0-0-0-0-| x2
G#|-3--3--3-3-x-0--0--0-0-0-0-|
C#|-3--3--3-3-x-0--0--0-0-0-0-|

D#|------------------------------|
A#|----------------3-3-----------|
F#|----5--5-5------2-2-----------|
C#|-3--3--3-3---0--0-0-2-2-2-2-2-|
G#|-3--3--3-3-x-0--0-0-2-2-2-2-2-|
C#|-3--3--3-3-x-0--0-0-2-2-2-2-2-|

Riff 4   "So say it, say it, you know what you did..."
D#|---------------------------------------------------|
A#|---------------------------------------------------|
F#|---------------------------------------------------|
C#|---------------------------------------------------|
G#|-12-----------10-----------8-----------7-----------|
C#|----7--7-7--7----7--7-7--7---7--7-7--7---7--7-7--7-|

D#|--------------------------------------------------------------------------|
A#|--------------------------------------------------------------------------|
F#|--------------------------------------------------------------------------|
C#|---------------------------------------5-7-5------7------5------3------2/-|
G#|-12-----------10-----------8-----------5-7-5------------------------------|
C#|----7--7-7--7----7--7-7--7---7--7-7--7-5-7-5--3-3----3-3----0-0----2-2----|

1

Dead Daffodils chords – Madisen Ward And The Mama Bear

 *CAPO I*

[Intro] - 
 Em A G Em A G Em A G Em A G Em A G 
Green leaves are turning, and the wind’s picking up
 Em A G 
Autumn reminds me of old fashioned stuff
 Em A G 
Out of the window, are-a green gazing eyes
 Em A G 
Staring at me while I wear my disguise

 Em A Em A 
That’s Mr Foreman, he lives alone
    G C G C 
He peers through his window, the rest is unknown
 Em A Em A 
I spoke with the neighbours, they tell me he’s ill
     G C A        
His doorstep is filled, with dead daffodils

Em A x 2
 G C A 
Em A x 2
 G C A Em A G 
Black morning flowers, they thought he had died
   Em A G 
A common conception, when hiding inside
 Em A G  
Never a letter, or knock at the door
 Em A G 
Hard to believe what the flowers lay for

 Em A Em A 
That’s Mr Foreman, he lives alone
     G C G C 
His wife was a painter, a long time ago
   Em A Em A 
I spoke with his neighbours, they tell me he’s ill
     G C A 
His doorstep is filled, with dead daffodils

Em A x 2
 G C A 
Em A x 2
 G C A 
Em A x 2
 G C A 
Em A x 2
 G C A Em A G 
Green leaves are turning, and the wind’s picking up
 Em A G 
Autumn reminds me of old fashioned stuff
 Em A G 
Out of the window, are-a green gazing eyes
 Em A G 
Staring at me while I wear my disguise

 Em A Em A  
That’s Mr Foreman, he lives alone
    G C G C 
He needed a coffin, he hand-made his own
   Em A Em A  
I spoke with his neighbours, they tell me he’s ill
     G C A 
His doorstep is filled, with dead daffodils

 A

Mona Lisa Tabs – Dead Sara

 -------------------------------------------------------------------------------
                             MONA LISA - Dead Sara
-------------------------------------------------------------------------------
: Chris Glenn
 chrisglenn17@hotmail.com

Tuning: Db Standard
        Db Ab Db Gb Bb Eb

First tab hope you can understand it. I recorded a cover of this if you need to see any parts played.


0:19-0:38
E|-------------|
B|-------------|
G|-------------|
D|-------------| x8
A|--------/5\--|
E|-0-0-00------|
   x x xx

0:39-0:47
E|-------------|
B|-------------|
G|-------------|
D|0-0-00-------| x4
A|0-0-00-/5\---|
E|0-0-00-------|


0:48-0:53
E|---------------------------|
B|---------------------------|
G|---------------------------|
D|---------------------------|
A|--------/5\-----------/5\~-|
E|-0-0-00-------0-0-00-------|
   x x xx       x x xx

1:00-1:10
E|------------------------|
B|-9br-7-5-4-5--5-4-5-7br-|
G|-9br-7-5-4-5--5-4-5-7br-|
D|------------------------| x2
A|------------------------|
E|------------------------|


1:14-1:22
E|-------------|
B|-------------|
G|-------------|
D|-------------| x3
A|--------/5\--|
E|-0-0-00------|
   x x xx

1:23-1:43
E|-------------|
B|-------------|
G|-------------|
D|0-0-00-------| x8
A|0-0-00-/5\---|
E|0-0-00-------|


1:52-2:07
E|-----------------------------|
B|-----------------------------|
G|--------------------10-------|
D|--------------10h12----12----| x4
A|-5-8-5-5---------------------|
E|---------3-0~----------------|
       x x


2:07-2:18
E|-------------------------------------------|
B|-------------------------------------------|
G|-------------------------------------------|
D|-------------------------------------------|
A|-5-8-5-5-----------------------------------|
E|---------3-0-0-0----0-0-0---0-0-0---0-0-0~-|

2:22-2:42 (bass first then guitar comes in)
E|---------------------------------------------                |--------------|
B|---------------------------------------------                |--------------|
G|---------------------------------------------                |--------------|
D|--------------------------------------------- x As Necessary |--------------|
A|---------------------------------------------                |-5-8-5-5------|
E|-0-12-12-12-12-0-12-12-12-12-0-12-12-12-12---                |---------3-0~-|
                                                                     x x


2:45-2:47
E|----------------------------------------------|
B|----------------------------------------------|
G|----------------------------------------------|
D|----------------------------------------------|
A|----------------------------------------------|
E|-0-12-12-12-12-0-12-12-12-12-0-12-12-12-12-0\-|

2:50-2:59
E|-------------   --------------|
B|-------------    |---    -----|
G|-------------    |-5-    -7---|
D|0-0-00------- x3 |-x- x8 -x---| x8
A|0-0-00-/5\---    |-3-    -5---|
E|0-0-00-------    |---    -----|

3:00-3:07
E|-------------|
B|-------------|
G|-------------|
D|0-0-00-------| x3
A|0-0-00-/5\---|
E|0-0-00-------|

3:08
E|--
B|--
G|--
D|0-
A|0-
E|0-

************************************

| /   slide up
| \   slide down
| h   hammer-on
| p   pull-off
| ~   vibrato
| +   harmonic
| x   Mute note
| b   Bend
| pb  Pre-bend
| br  Bend release
| pbr Pre-bend release
| brb Bend release bend

************************************

Nightmares Tabs – Disturb The Dead

 -------------------------------------------------------------------------------
                             Nightmares - Disturb The Dead
-------------------------------------------------------------------------------
: Mitchel Nash
 mitchelnash@aim.com

Tuning: Standard
Verse 
e|---------------------------------------------------------------------------|
B|---------------------------------------------------------------------------|
G|---------------------------------------------------------------------------|
D|---------------------------------------------------------------------------|
A|--9-----5-----7-7----9-----5-----7-7-----9-----5-----7-7----9--9--9--5--7-7|
E|--7-----3-----5-5----7-----3-----5-5-----7-----3-----5-5----7--7--7--3--5-5| x4
Chorus
e|---------------------------------------------------------------------------|
B|---------------------------------------------------------------------------|
G|---------------------------------------------------------------------------|
D|---------------------------------------------------------------------------|
A|--5--5--5--7--7--7--9--9--9-7--7--7--5--5--5-7--7--7-9---------------------|
E|--3--3--3--5--5--5--7--7--7-5--5--5--3--3--3-5--5--5-7---------------------| x3


Repeated 4 times.


************************************

| /   slide up
| \   slide down
| h   hammer-on
| p   pull-off
| ~   vibrato
| +   harmonic
| x   Mute note
| b   Bend
| pb  Pre-bend
| br  Bend release
| pbr Pre-bend release
| brb Bend release bend

************************************

Turn On Your Lovelight Live Tabs – Grateful Dead

 TURN ON YOUR LOVELIGHT (Live)

As recorded by Grateful Dead
(From the 1972 Album HUNDRED YEAR HALL)

Words and Music by Deadric Malone & Joe Scott

 Slowhand


Gtr I (E A D G B E) - 'Jerry Garcia - Electric Guitar'
Gtr II (E A D G B E) - 'Bob Weir - Electric Guitar'


   Intro
    H=109
    N.C.                                        E7           A
   4/4
    Gtrs I, II
    E E E E +Q   Q    E Q  E +Q   Q   4x     Q  E E E E Q    E E E E +Q   Q   8x
||------------------|-----------------||-||----------------|------------------||
||o-----------------|----------------o||-||o----5-----5----|-5-----5-(5)-----o||
||------------------|------6-(6)--9---||-||-----7-----7----|-6-----6-(6)------||
||--------6-(6)--9--|-7---------------||-||-----6-----6----|-7-----7-(7)------||
||o-7---------------|----------------o||-||o---------------|-----------------o||
||------------------|-----------------||-||----------------|------------------||


   1st & 4th Verses
    $
       E7           A                    E7           A
    Q  E E E E Q    E E E E +Q   Q    Q  E E E E Q    E E E E +Q   Q
||----------------|-----------------|---------------|------------------||
||o----5-----5----|-5-----5-(5)-----|----5-----5----|-5-----5-(5)-----o||
||-----7-----7----|-6-----6-(6)-----|----7-----7----|-6-----6-(6)------||
||-----6-----6----|-7-----7-(7)-----|----6-----6----|-7-----7-(7)------||
||o---------------|-----------------|---------------|-----------------o||
||----------------|-----------------|---------------|------------------||


   2nd & 3rd Verses
       E7           A                    E7           A
    Q  E E E E Q    E E E E +Q   Q    Q  E E E E Q    E E E E +Q   Q
||----------------|-----------------|---------------|-----------------|
||o----5-----5----|-5-----5-(5)-----|----5-----5----|-5-----5-(5)-----|
||-----7-----7----|-6-----6-(6)-----|----7-----7----|-6-----6-(6)-----|
||-----6-----6----|-7-----7-(7)-----|----6-----6----|-7-----7-(7)-----|
||o---------------|-----------------|---------------|-----------------|
||----------------|-----------------|---------------|-----------------|


     E7           A                    E7           A
  Q  E E E E Q    E E E E +Q   Q    Q  E E E E Q    E E E E +Q   Q
|---------------|-----------------|---------------|------------------||
|----5-----5----|-5-----5-(5)-----|----5-----5----|-5-----5-(5)------||
|----7-----7----|-6-----6-(6)-----|----7-----7----|-6-----6-(6)------||
|----6-----6----|-7-----7-(7)-----|----6-----6----|-7-----7-(7)------||
|---------------|-----------------|---------------|------------------||
|---------------|-----------------|---------------|------------------||


 Chorus
     E7           A                    E7           A
  Q  E E E E Q    E E E E +Q   Q    Q  E E E E Q    E E E E +Q   Q
|---------------|-----------------|---------------|------------------|
|----5-----5----|-5-----5-(5)-----|----5-----5----|-5-----5-(5)------|
|----7-----7----|-6-----6-(6)-----|----7-----7----|-6-----6-(6)------|
|----6-----6----|-7-----7-(7)-----|----6-----6----|-7-----7-(7)------|
|---------------|-----------------|---------------|------------------|
|---------------|-----------------|---------------|------------------|


     E7           A                    E7           A
  Q  E E E E Q    E E E E +Q   Q    Q  E E E E Q    E E E E +Q   Q
|---------------|-----------------|---------------|------------------|
|----5-----5----|-5-----5-(5)-----|----5-----5----|-5-----5-(5)------|
|----7-----7----|-6-----6-(6)-----|----7-----7----|-6-----6-(6)------|
|----6-----6----|-7-----7-(7)-----|----6-----6----|-7-----7-(7)------|
|---------------|-----------------|---------------|------------------|
|---------------|-----------------|---------------|------------------|


     E      E7         A                 E5       E7         A
  Q   E E E  E Q    Q   Q   +Q   Q    Q   E  E  E  E Q    Q   Q   +Q   Q
|-----------------|-----------------|-------------------|------

This Carnival Is Dead And Gone chords – Current-93

 Artist: Current 93
Title: This Carnival Is Dead And Gone

 Am Am 
Dear sir dear lady

       G Em 
This carnival is dead and gone

 Am G Bm Am 
And never anyway alas this party never yet began

The chairs and tables dust of dust

 G Em Am  
Yes verydust of veryrust of verymust and farewelltrust

    G Bm Am  
I thought I saw you in the crowd dear heart

                               G Em 
You turned away from me and then you dissolved into light

      Am Bm 
The broken lights and faded buntings

 G Fmaj7 
Call to us all the inmost light
  
                                    G 
And don't glare wide your eyes in wonder

       Em Fmaj7 
They will flick back inside your mind

                        G 
And on the bonescreen of your skull

       Bm Am 
They watch no musical salutes

                G Em Am 
So thoroughly modern now we are

But the last reel of all time

 G Am 
The inmost night

Its frames are glared and slow and out of focus

 G Em Am 
Valentino Vallee Moss all dead!

The inmost night

           G Bm Am 
And the little bells go tinkle

And your eyes begin to twinkle
 
          G Em   
And the joints and sinews crack

 Am G 
It's the expansion of your mind death
Death
Death
Death

 Fmaj7 Am 
The inmost night

      G Em Am 
The cat's face glares from shiny card

The deadcat from my past

       G Bm Am 
You tumble you froth and fun forever

    Fmaj7 Am 
An orchestra from another time

 G Em 
Another world all dead

       Am G Bm Am 
The churchbells silent the rainstained glass of God is smashed

And you take your choice you sup with the devil

      G Em 
You choke on your pride for ever and ever

     Fmaj7 G Bm Am  
My memory of my inmost light it tumbles froth and fun forever

                                    G 
Vulvaic memories imagined of my would-be-life

       Em 
Well that won't be

      Am 
And that won't be

And that won't be

 G Bm    
And that won't be

 Fmaj7 
And for my troubles and my pain
 
 G Em 
And for the losses and the wains

    Am 
I get a picture in my mind

      G Bm Am 
The slyly smily smiling kiss

               G 
Of your sweet heart and face

 Em Am 
And your legs in some final benediction

                             G 
Your inmost warmheart says ta-ra

           Bm Am 
And I wished to die inside of you

                       G Em 
And push up into your heart so violently that

 Am G 
Face to face with matrix creatrix am

                Bm Am  
The inmost light

The inmost night


A last tip:
Intead of playing Bm Am, you can also play Bm Am G Am instead (all with short strums of course).

Stronger solo Tabs – Dead By April

 Dead by April
Stronger (solo)
Dead by April (2009)

Pontus uses an 8 string, but I've transcribed it for a 6 string in standard tuning. Adjust the notes
if you need to according to the tuning you're using. You can also mess with which strings you use for
each note, but this is how I play it.

Guitar 1
e|----------------------------------------------------------------------------------------------|
B|------------------------------------------------------------------15-17-/18-17h18p17----------|
G|-----------------------------------------------------17-17----/14--------------------17-------|
D|--14h15-15v----14h15-14-12/14v----14h15-15v----14h15----14------------------------------/17v--|
A|----------------------------------------------------------------------------------------------|
E|----------------------------------------------------------------------------------------------|

e|-----------------------------------------------------15b17--17br15-13-13h15--13-12h13p12------|
B|--------------------------------------15-17-18-15-17-------------------------------------15v--|
G|-----------------------------------14---------------------------------------------------------|
D|------12-14-14PH/15-14h15p14-12---------------------------------------------------------------|
A|--/12-----------------------------------------------------------------------------------------|
E|----------------------------------------------------------------------------------------------|

                   
e|-------------------------------------------------------------------------12-13-12h13p12--|
B|--17PH-13--------/18-18-18---------------------------=-------------13-15-----------------|
G|----------14v--------------15-14--------------------------12-14-15-----------------------|
D|---------------------------------17v----14h15p14-12-14-15--------------------------------|
A|-----------------------------------------------------------------------------------------|
E|-----------------------------------------------------------------------------------------|


e|-----12-13-15-17-13------------------|
B|--15----------------15---------------|
G|-----------------------14------------|
D|--------------------------15---------|
A|-----------------------------17-13v--|
E|-------------------------------------|

Legend:
h = hammer-on
p = pull-off
/ = slide up
\ = slide down
PH = pinch harmonic
v = vibrato
b = bend up
br = bend release

The Last Question In The Dead Of The Night chords – Mickey Newbury

 The Last Question (In the Dead of the Night)

 E A G#m F#m 
How can I feel so alive with you darlin' 
        B E 
In the dead of the night 
                        A G#m F#m 
Why do I reach out for you every mornin'
        B E  
At the first sign of light 

 A E 
How could I not know you knew you were leavin' 
                     B7 
How could I not realize 
 E A G#m F#m 
How could I not know you were pretending 
               B E 
Where did the truth lie in your eyes 

Why do I feel so much love for you darlin' 
Feel so much love deep inside 
Oh why do I still feel alive with you darlin' 
Here in the dead of the night 

How could I not know you were only pretending 
How could I not realize 
How could I not know you knew you were leaving 
Where did the truth lie in your eyes 

Where did the truth lie in your eyes 
In the dead of the night

Kicked Out – Kicked In chords – Dead Moon

 Kicked Out- Kicked In  (Fred Cole)

: Deadmoony

Intro:

 Em G D   (8x)

 Em G D Em G D 
When I was 16 I was kicked out of school
they couldn't dig my anti-social attitude
when I was 20 looking for a job
they told me "kid, you got hair too long"
and things ain't changed a lot since way back when
I'm still a loner without many friends

CHORUS:
 D Em G D Em G D  
Kicked out - kicked in, I can't open the door
Kicked out - kicked in, I can't open the door

 Em G D  (4x)

 Em G D Em G D    
When I got older and I learned the truth
some things don't matter if they ain't no use
if you can't get there without playing games
or pointing fingers at who's to blame
I'm only human but time will tell
who's sold out and who is for sale


CHORUS + SOLO

 Em G D Em G D                  
Now muddy water's running through my brain
that deep depression's coming on again
it's no secret why I'm so damn down
It's how you end up in the underground
I can't remember how I fell out of sight
it's like I'm on the other sight of the light

CHORUS

 D A D A D Em   (END)



Dead Moon: 
Fred Cole-  Guitar, Vocals 
Toody Cole-  Bass, Vocals  
Andrew Loomis- Drums 

„Dagger Moon“ on „Defiance“ LP (Tombstone Records ‎– T-35, 1990/ Mississippi Records, M´lady´s Records 
AND and „Echoes Of The Past“(Sub Pop 2CD Compilation/The best of Dead Moon as compiled by rock & roll 
legend and survivor Fred Cole) 

Give Me Your Name Tabs – Dead By Sunrise

 Give Me Your Name - Tab

Tuning:
Guitar I (Rhythm): Dropped D
Guitar II (Heavy Distortion): Dropped D
Guitar III (Acoustic): Standard

Note I: Some parts of guitar II, especially the end of the 
solo, were hard to hear clearly because of the heavy 
distortion.  Also, to get the timing right for guitar II's 
parts, you just need to listen to the song as you play.

Note II: I may add the melody guitar II plays during the chorus
later.  If there is one (which I think there is) it's hard to 
hear and is subtle.

__________________

Key:

/=Slide up
\=Slide down
~=Let ring
b=bend
p=pull off
v=vibrato
()=optional note
-\=I don't know how else to write it, 
but this means slide down the string slowly.
__________________

[Intro (0:00-0:28)]
[Guitar I]
E|------------------------------------------------------------|
B|------------------------------------------------------------|
G|------------------------------------------------------------|
D|------------------------------------------------------------|
A|-9/10~----------7~----------2~----------5~------------------|
D|-9/10~----------7~----------2~----------5~------------------|

[Guitar II]
[0:05-0:28]
E|------------------------------------------------------------|
B|-13bp12bp10~----10/12\10~----10\6---------------------------|
G|----------------------------------7/9~----9\7/9~----9\4-----|
D|----------------------------------------------------9\4-----|
A|------------------------------------------------------------|
D|------------------------------------------------------------|

E|-7~----7-7----------------7------7--------------------------|
B|-8~--------8-8-8----8---8---8------8------------------------|
G|-----------------7----7-------7------7----------------------|
D|------------------------------------------------------------|
A|------------------------------------------------------------|
D|------------------------------------------------------------|

[Verse I (0:29-1:28)]
[Guitar I]
[x2]
E|------------------------------------------------------------|
B|------------------------------------------------------------|
G|------------------------------------------------------------|
D|------------------------------------------------------------|
A|-9/10~----------7~----------2~----------5~------------------|
D|-9/10~----------7~----------2~----------5~------------------|

[Guitar II]
[0:29-0:36]
E|------------------------------------------------------------|
B|---------------------8b--8/10b--10~-------------------------|
G|------------------------------------------------------------|
D|-9/10~------------------------------------------------------|
A|------------------------------------------------------------|
D|------------------------------------------------------------|

[0:50-1:00]
E|------------7---7---------7/10--8p7-------------------------|
B|-----8~--8----8----7/8--------------------------------------|
G|-7\4-7~------------7-7--------------------------------------|
D|-7\4--------------------------------9/10~-------------------|
A|------------------------------------------------------------|
D|------------------------------------------------------------|

[1:04-1:19]
E|------------------------------------------------------------|
B|-8b--8/10b--10~----------8--------------12\10/12~-----------|
G|------------------------------------------------------------|
D|----------------------------(5~)----------------------------|
A|------------------------------------------------------------|
D|------------------------------------------------------------|

[1:20-1:28]
E|----------------------------12v~----------------------------|
B|-10\7/8v~------12\10/12~------------------------------------|
G|------------------------------------------------------------|
D|------------------------------------------------------------|
A|------------------------------------------------------------|
D|------------------------------------------------------------|

[Chorus I (1:29-1:57)]
[Guitar I/II

The Marshals Are Dead Tabs – Bloc Party V2

 Found this tab elsewhere and it seemed to better than ones on here already.




ARTIST: Bloc Party
SONG: The Marshals Are Dead
ALBUM: Bloc Party (EP)
TABBED BY: Jonny Kates
DATE: 18th January, 2005
RELATED LINKS: www.blocparty.com, www.blocparty.net (unofficial).
LYRICS: http://www.blocparty.net/themarshalsaredead.html
STREAM/DOWNLOAD: http://www.blocparty.com/special/Bloc_Party_-_The_Marshals_Are_Dead.mp3
The author refuses to be held responsible for the content or legality of the above links.

AUTHORS NOTES:
I felt that this song was just crying out to be tabbed, so here it is. See the end of the
page for the structure of the song to help if you need it. I have tried to set out the timing
as best I can, but listening to the song will obviously help. I am also unsure/cannot be
bothered to check that the 'guitar1' and 'guitar2' titles above the sections do actually
correspond to the correct guitar. Either way, they are both fairly accurate I think. This
whole tab was worked out by ear, I didn't copy it from anywhere. Obviously alot of the riffs
can be transposed to different places on the guitar, although I have found that the way it is
tabbed below is my personal preferance. Sometimes the other guitar will be playing something
already tabbed, so I haven't repeated it. It should be pretty obvious if you hear it.

 Enjoy and email me feedback at jonnykates@gmail.com!


GUITAR1: INTRO/VERSE1 (0:01-0:39)
E|-------------------------------------|-------------------------------------|
B|-------------------------------------|-------------------------------------|
G|-------------------------------------|-------------------------------------|
D|-12--12--12--12--12--12--14-14-14-14-|-12--12--12--12--12--12--12-12-12-12-|
A|-14--14--14--14--14--14--14-14-14-14-|-14--14--14--14--14--14--13-13-13-13-|
E|-------------------------------------|-------------------------------------|

GUITAR1: CHORUS (0:39-1:05)
E|-------------------------------------|
B|-------------------------------------|
G|-11--11--11--11--11--11--11-11-11-11-| (repeat over. Guitar 2 may actually play
D|-12--12--12--12--12--12--12-12-12-12-|  some of the higher notes in the same chord,
A|-14--14--14--14--14--14--14-14-14-14-|  but it's not really needed and you can't
E|-------------------------------------|  really tell.)

GUITAR1: BRIDGE (1:05-1:18)
E|-----------------------------------|-------------------------------|
B|-----------------------------15-14-|-------------------------------|
G|--------------------14-16-14-------|-------------------------------|
D|-16-16---16-16---16----------------|--14-14---14-14---12-12--12-12-|
A|-----------------------------------|-------------------------------|
E|-----------------------------------|-------------------------------|

E|-------------------------------------------------------------------------------|
B|-----------------------------15-14-14-15-17---------------------------14-------|
G|--------------------14-16-14----------------14------------14~~~~------14-------|
D|-16-16---16-16---16------------------------------17-16-17----------16----16----|
A|----------------------------------------------------------------17-------------|
E|-------------------------------------------------------------------------------|

GUITAR2: BRIDGE (1:05-1:18)
E|--------------------------|---------------------------|
B|----------------------8-7-|---------------------------|
G|-7-7----7-7---7-7-9-7-----|-6-6----6-6----4-4----4-4--|
D|-9-9----9-9---9-----------|-7-7----7-7----5-5----5-5--|
A|--------------------------|---------------------------|
E|--------------------------|---------------------------|

E|--------------------------|---------------------------|
B|----------------------8-7-|---------------------------|
G|-7-7----7-7---7-7-9-7-----|-6-6----6-6----6-6----6-6--|
D|-9-9----9-9---9-----------|-7-7----7-7----7-7----7-7--|
A|--------------------------|---------------------------|
E|--------------------------|------------------------

Too Late Acoustic chords – Dead By Sunrise V2

 Am C D 
It's cold and dark I think I'm going insane
 Am F G 
The end is coming its true
 Am C D 
I'm all alone and I am screaming your name
 Am F G 
It seems that's all I can do

          F G Am C 
But it's too late to turn back now
      F G Am C 
It's too loud to hear a sound
     F G Am C 
I'm so lost I can't be found
      F G Am 
It's too late to turn back now

 Am C D 
It's hard to focus when your life is a blur
 Am F G 
It's hard to see the truth
 Am C D 
How can I move on when there's so much to learn
 Am F G 
And every road comes back to you

         F G Am C 
But its too late to turn back now
      F G Am C 
It's too loud to hear a sound
     F G Am C 
I'm so lost I can't be found
      F G Am 
Its too late to turn back now

         F G Am C 
But it's too late to turn back now
      F G Am C 
It's too loud to hear a sound
     F G Am C 
I'm so lost I can't be found
      F G Am 
It's too late to turn back now

     F G Am C 
I'm so lost I can't be found
      F G Am 
It's too late to turn back now  

Terrapin Station Tabs by Grateful Dead V2

 Intro:

F

Jerry:
E|----1---1---1-1--0--1--------|
B|----1---1---1-1--0--1--------|
G|----2---2---2-2--2--2--------|
D|----3---3---3-3--3--3--------|
A|----3---3---3-3--3--3--------|
E|-----------------------------|    (repeat)

Bobby:
E|-----------------------------------------|
B|---------12\10--10x---13-13--12--13------|
G|-------12--\10--10x---10-10--10--10------|
D|--10/12----\10--10x---10-10--10--10------|
A|-----------------------------------------|
E|-----------------------------------------|  (repeat)

(riff 1):  (end of verse riff)

E|-------1--5-3---------|
B|-----1---------0-1----|
G|---2------------------|
D|----------------------|
A|----------------------|
E|----------------------|

Verses:     Lady With A Fan:

G                  Dm      Dm    C      G          F
Let my inspiration flow in token rhyme, suggesting rhythm,
F                C                F                C      F (riff 1)
That will not forsake me, till my tale is told and done.

G                      Dm            Dm      C        G           F
While the firelights aglow, strange shadows from the flames will grow,
F                       C              F           F
Till things weve never seen will seem familiar.

G                    Dm      Dm         C        G        F
Shadows of a sailor, forming winds both foul and fair all swarm.
F                    C            F             C      F   (riff 1)
Down in Carlisle, he loved a lady, many years ago.


G                        Dm     Dm      C        G        F
Here beside him stands a man, a soldier from the looks of him,
F                     C                   F      F
Who came through many fights, but lost at love.

G                     Dm        Dm       C      G    F
While the storyteller speaks, a door within the fire creaks,
F              C           F                C      F    (riff 1)
Suddenly flies open, and a girl is standing there.

G                         Dm    Dm       C     G         F
Eyes alight, with glowing hair, all that fancy paints as fair,
F                     C                 F             F
She takes her fan and throws it, in the lions den.

G                       Dm         Dm     C       G        F
Which of you to gain me tell, will risk uncertain pains of hell?
F             C               F                 C       F   (riff 1)
I will not forgive you if you will not take the chance.

G                          Dm       Dm      C     G        F
The sailor gave at least a try, the soldier being much too wise,
F                C                   F            F
Strategy was his strength, and not disaster.

Solo:
    G                Dm    Dm       C     G           F
E|----------------12-13-|--17---20--15----------------------|
B|--15---12-13-15-------|----------------15-13-12-----------|
G|----------------------|-------------------------12-14-----|
D|----------------------|-----------------------------------|
A|----------------------|-----------------------------------|
E|----------------------|-----------------------------------|

    F                 C               F
E|------------------------|---------------------------------|
B|--------12--------------|--------------12-----------------|
G|--13h14---14--12-14-12--|-------12--14---14--12-----------|
D|------------------------|--13h14--------------------------|
A|------------------------|---------------------------------|
E|------------------------|---------------------------------|

    C              F                    F
E|--------------|--------13--17-15---|----------------------|
B|--------13----|-----13-------------|--15---12h13----------|
G|-----12-------|--14----------------|----------------------|
D|--14----------|--------------------|----------------------|
A|--------------|--------------------|----------------------|
E|--------------|--------------------|----------------------|
       G  

Song For The Dead chords – Sea Wolf V2

 Standard tuning.



 Am 
Awake without warning The black of the morning

 Dm 
All shimmery jewels From the voice of a fool

 Am 
Echoes through the halls Of the building He built in her

 E 
place


 Am 
He'll shake through the winter And dream of her mister

 Dm 
The picture he drew her Resembled her sister

 Am 
Oh how the wind Can pull you in or

 E 
Push you away


 Dm 
You'll move like a tiger

 Am 
Into the thicket

 Dm 
Claws in the dirt

 Am 
You'll sing like a cricket

 Dm 
Song of the mystery

 Am 
Song of the system

 Dm 
Song for the guilty

 Am 
Song for the living

 Dm           
Song for the 

 Am 
dead