Tag: dear

Requiem Piano Chords by Dear Evan Hansen

Capo 4 

[Intro]
Am C F G 
Am C F G 


[Verse]
Am                     C       F
Why should I play this game of pretend?
Am                    C          F
Remembering through a secondhand sorrow?
Am                   C         F
Such a great son and wonderful friend
   G         C          F
Oh don't the tears just pour

Am                C          F
I can curl up and hide in my room
Am                    C       F
There in my bed still sobbing tomorrow
Am                 C          F
I could give in to all of the gloom
G
But tell me, tell me what for


[Pre-Chorus] 
Dm
Why should I have a heavy heart?
F
Why should I start to break in pieces?
Dm                                 G
Why should I go and fall apart for you?


[Chorus]
C
Why should I play the grieving girl and
G
Lie saying that I miss you
         Am                F                 G
And that my world has gone dark without your light
Dm             F            Am
I will sing no requiem tonight


[Instrumental]
Am C F G
Am C F 


[Verse] 
Am                      Em         F
I gave you the world, you threw it away,
Am                   Em            F
leaving these broken pieces behind you
Am                 Em         F
Everything wasted, nothing to say
    Dm            G
So I can sing no requiem

Am          G      Em       F
I hear your voice, feel you near
Am           G       Em          F
Within these words I finally find you
Am             G         Em           D                    
And now that I know that you are still here
  F            G
I will sing no requiem tonight


[Pre-Chorus]
Dm 
Why should I have a heavy heart?
F                              G
Why should I say I'll keep you with me?
Dm                  C          G
Why should I go and fall apart for you?


[Chorus]
C
Why should I play the grieving girl and
G
Lie saying that I miss you
         Am                F                 G
And that my world has gone dark without your light
Dm             F            
I will sing no requiem 
G
Tonight


[Bridge] 
                       F                        G
'Cuz when the villains fall, the kingdoms never weep
                F                  G
No one lights a candle to remember
G                    F
No, no one mourns at all
                        G
When they lay them down to sleep
         A#             F             C
So don't tell me that I didn't have it right
      A#              F                C
Don't tell me that it wasn't black and white
      A#                F            A#              F
After all you've put me through, don't say it wasn't true
     Dm                              F
That you were not the monster that I knew,


[Chorus]
      C
Cause I cannot play the grieving girl and 
G
Lie saying that I miss you 
        Am                 F        C  G
And that my world has gone dark


[Coda]
Dm          Am      F
I will sing no requiem
C           Am      F
I will sing no requiem
Dm          Am      F    
I will sing no requiem 
     Am 
tonight
C F 
Oh-oh
G Am
Oh-oh
C F
Oh-oh
G Am
Oh-oh

Dear S​​a​​m Im Dead Too You Tabs – Weerd Science

 -------------------------------------------------------------------------------
                        Dear S.A.M. I'm Dead Too You - Weerd Science
-------------------------------------------------------------------------------
:fmongold       
Email:fmongold

. :)

I tabbed it the best I could from this video:


If I did something wrong please feel free to make corrections.

Tuning:Standard (EADgbe)

Main Riff
e|----------------------|
B|----------------------|
G|----------------------|
D|-------9-10---10-9h---|
A|-7-7------------------|
E|-----0----------------|

e|--------------------------------|
B|--------------------------------|
G|--------------------------------|
D|-------12-10--10/9-10h9---------|
A|-7-7--------------------10-9h/7-|
E|-----0--------------------------|

| /  slide up
| \  slide down
| h  hammer-on
| p  pull-off
| ~  vibrato
| +  harmonic
| x  Mute note

One More Kiss Dear chords – Vangelis Vsion 3

 [Verse 1]

 A G#7 
One more kiss, dear, one more sigh
 A B7 
Only this dear, is goodbye
 A E 
For our love is such pain and such pleasure
 A B7       
That I'll treasure till I die

[Verse 2]

 A G#7 
So for now dear, au revoir ma belle
 A B7 
But I bow dear, not farewell
 A E 
For in time we may have a love's glory
 A E 
Our love story to tell

[Verse 3]

 D7 Am E 
Just as every autumn leaves fall from the tree
 D7 Am E 
Tumble to the ground and die
 Am E7 
So in the springtime like sweet memories
 Fm#7 B7 
They will return as will I

[Verse 4]

 A G#7 
Like the sun dear, upon high
 A B7 
We'll return dear, to the sky
 A E 
And we'll banish the pain and the sorrow
 A B7   
Until tomorrow, goodbye

[Verse 1 repeated]

 A G#7 
One more kiss, dear, one more sigh
 A H7 
Only this dear, is goodbye
 A E 
For our love is such pain and such pleasure
 A B7       
That I'll treasure till I die

[Verse 4 repeated]

 A G#7 
Like the sun dear, upon high
 A B7 
We'll return dear, to the sky
 A E 
And we'll banish the pain and the sorrow
 A B7   
Until tomorrow, goodbye

Waves chords – The Dear Hunter V3

 Key: Eb


*You can play this easier by using Capo 3 and transposing these chords down 3 steps.



 Eb Cm G#  x2



 Eb Cm   
  I thought that I knew love
 G# Eb Bb G# 
  But it was just a wave crashing over us
 Cm Eb 
  And in the breaths between the ones we meant to breathe
          Bb G# 
I had my head under my feet

You knew the way things were
                      
You knew the way they would be
 G# Cm 
We knew exactly how it'd end



 Cm Eb G# Cm Eb 
  Strays on a stale sea
                           Bb G# 
Oh anchor the engine to a canyon far beneath
 Cm Eb 
  Water rushed up from the boards below
                          Bb G# 
So I started slicking my hair with the kerosene

You knew the way things were
                      
You knew the way they would be
                          Eb 
We knew exactly how it'd end




 Eb Cm 
  And I'm preparing for a burial at sea
     G# Bb    
But I can see the lighthouse
 Eb Cm 
  Yet I'm praying that these waters don't take me
       G# Bb Cm 
Cause I can see the lighthouse




 Cm Eb G#  x2




 Fm 
I was screaming that the ship was sinking
     Cm 
But you were telling me to just keep drinking
 Bb 
Corded in the parts again
 G# 
Arms and legs at the bottom of the ocean
 Fm 
And the thing that made it so much harder
 Cm 
Was the fact that you were someone's daughter
 G# 
I knew the way things were

I knew the way they would be
                         Eb 
I knew exactly how it'd end



 Eb Cm 
  And I'm preparing for a burial at sea
     G# Bb    
But I can see the lighthouse
 Eb Cm 
  Yet I'm praying that these waters don't take me
       G# Bb Cm 
Cause I can see the lighthouse



 Eb Cm   
  I thought that I knew love
 G# Eb Bb G# 
  But it was just a wave crashing over us

King Of Swords Reversed chords – The Dear Hunter

 Key: C


 F G F G G 
Gears turning that no wrench can attack
 F 
Consideration
    G F 
Or pause had their time come and pass
 G F G 
No gloves bet you can't get enough
        G F G 
Make a fine parade so the public sways in your wake



 G                    
I just thought that I would go
 F 
Till the money's gone
 G F 
I never wanted to fake it
 G 
Now I can't stop till everyone
          F 
Who ever done me wrong
 G           
Knows I’m not willing to take it




                   F 
Boy, you've got a Hard time

Bring yourself to glory
 G 
(Do do do do do do do do do do)
              F 
You've got a Hard time

Bring yourself to glory




 G F 
I never wanted my name up in bright lights
                          C 
But I think that I might be there soon
                 F 
I owe it all to you (I owe it all to you)
 G F 
I was never Looking for fame or the limelight
                          C 
But I think that I might be there soon
                 F G 
I owe it all To you



 G F 
No one ever told me what it meant to be alone
 G F 
I had to learn on my lonesome
 G                           
Now every feigning flame I chance upon
           F 
I put the fire on
 G 
I keep my wheels in motion




                   F 
Boy, you've had a hard time

Bring yourself to glory




 G F 
I never wanted my name up in bright lights
                          C 
But I think that I might be there soon
                 F 
I owe it all to you (I owe it all to you)
 G F 
I was never Looking for fame or the limelight
                          C 
But I think that I might be there soon
                 G 
I owe it all To you

A Night On The Town chords – The Dear Hunter

 Key: G


 G Em G Em G Em D  x2



 Em 
I've been misplaced in so many ways
 Bbm Em 
Broken battlegrounds, hiding veils of delicate deceit
     Am 
Yet here I breathe
 Em 
Teeth still gleam from holy water
       C 
While millions of lambs migrate to the slaughter
    B Em Am 
My head in a bag and my hands are bound to my feet
 D 
And voices sing:



 B 
"Were we erased like common thieves?
 Em 
Tossed in a cell to feast with the fleas
 B C 
All because we never had written a word."



             G 
What will I see, tonight in these eyes
     D C              
And what will i know when the morning comes?
 Em D G 
    What will I see, tonight in these eyes
     D C Em D 
And what will I know when the morning comes?



 B Em 
Must we remind of exchanges existing so long ago?
 B 
Would we arrive at agreeable musings
 Em D 
Sentimental or just confusing
    B 
We lost what we had but we took it back
 Am G Em 
Friends in the gutter, enjoy one another
      B C 
Just give yourself to the dust and the dirt where you stand


             G 
What will I see, tonight in these eyes
     D C              
And what will i know when the morning comes?
 Em D G 
    What will I see, tonight in these eyes
     D C              
And what will I know when the morning comes?




     Em D Am 
I'm not who you think I am
               C B 
And even if I thought you'd known
                    Am 
I never would have told you so
     G 
And more alarming
              C A D 
I would have done the very same
            C A D 
Would have stole more than your name
            C A D Am 
Would have cursed and bought the world on your shoulders
              B 
I was in the wrong place

At the right time




     Em D G 
And what's the worst I'd see
                                 C 
By giving myself to the earth below me
     Em D G C 
Not knowing how far I'd fall, by casting away the ordinary
      G D G C 
Just how long can I stay in illusions formed here long before me?
     G D G C 
And how long can I breathe this stolen breath here underneath?




 Em C 
  There's that subtle smile that did me in
 D Em 
She moves...
            C 
An agony reminds where I've been
 D Em 
She breathes
                     C 
"I'd never let this happen again."


 Am Em 
Where's your heart?
 C G 
Mimicking the patriarch
 Am C 
She's naive... 

Dear X You Dont Own Me chords – Disciple V3

 Disciple - Dear X You Dont Own Me
 CAPO ON 1ST FRET

intro:
 Em  (G)  C D   x2
 Em7 G 
Dear pain, oh, it's been a long time
 C D 
Remember when you were holding me tight
 Em7                      (G)     C D 
I would stay awake with you all night
Em                            (G) 
Dear shame, I was safe in your arms
 C                        (G)       D 
You were there when it all fell apart
Em                          (G)C               D
I would get so lost in your beautiful lies
 Em         
I let you go
 C D             
But you're still chasing

chorus:
 Em7 
Go ahead
 C 
You're never gonna take me
 G 
You can bend
 D                           
But you're never gonna break me
 Em 
I was yours
 C 
I'm not yours anymore
 G D                
Oh, you don't own me

 Em  (G)  C D  

Em                          (G) 
Dear hate, I know you're not far
 C                     (G)         D 
You would wait at the door of my heart
 Em G C D 
I was amazed at the passion in your cries
Em                        (G)
Dear anger, you made me so high
 C D 
You were faithful to show up on time
 Em G C D 
Such a flame that was burning in your eyes
 Em 
I let you go
 C D 
But you're still chasing

 Em7 
Go ahead
 C 
You're never gonna take me
 G 
You can bend
 D                           
But you're never gonna break me
 Em 
I was yours
 C 
I'm not yours anymore
 G D                
Oh, you don't own me

 Em7 
Go ahead
 C 
Put a target on my forehead
 G 
You can fire
 D                    
But you've got no bullet
 Em7 
I was yours
 C 
But I'm not yours anymore
 G D                 
Oh, you don't own me

bridge:
 F#m C D Em 
You tempted me to look back
 F#m C Em D 
But everything that we had together was a lie

chorus:
 Em7 
Go ahead
 C 
You're never gonna take me
 G 
You can bend
 D                           
But you're never gonna break me
 Em 
I was yours
 C 
I'm not yours anymore
 G D                
Oh, you don't own me

 Em7 
Go ahead
 C 
Put a target on my forehead
 G 
You can fire
 D                    
But you've got no bullet
 Em7 
I was yours
 C 
But I'm not yours anymore
 G D                 
Oh, you don't own me

 Em7 
Go ahead
 C 
Put a target on my forehead
 G 
You can fire
 D                    
But you've got no bullet
 Em7 
I was yours
 C 
But I'm not yours anymore
 G D                 
Oh, you don't own me
final:
 Em  (G)  C D   x2  Em 


tutti gli (G) se volete potete suonarli ;)
spero vi piaccia. è una canzone non facile per il ritmo ma fattibile. fatto da Marco Felder 

Down Under Mining chords – Dear Reader

 Capo 5th fret



 Em ...  G ...  Am ...  G ...  D Em G 
David, I never expected to see you
 Am G D 
Face black with soot down and a fire in your eyes
 Em G 
David, I never intended to grieve you
 Am 
Meant to disgrace you 
      G Am Em 
Your face black with soot and your eyes


 Em ...  G ...  Am ...  G ...  D Em G 
Mother, my brother is dead in the gutter
 Am G D 
Dead in the gutter, oh my baby brother
 Em G 
Mother, my father is down in the ground
 Am G Am Em 
Down under, mining, fetching the white man his gold


 G 
Down under, mining
 Am 
Down under, mining
 G Am Em 
Fetching the white man his gold
 G 
Down under, mining
 Am 
Down under, mining
 G Am Em 
Fetching the white man his gold


 G 
Oh Town of Johannes
 Am 
Your spell is upon us, 
 Em 
Your spell and your lust
 C G 
The dust chokes above and it chokes down below
           Am 
But they from near and far come 
    A7 C 
I don’t know what they’re looking for
    G D C G 
I don’t know what they’re looking for
 G Am Em 
Fetching the white man his gold

 Em 
Down under, mining
 G 
Down under, mining
 Am G C Em 
The dust chokes above and it chokes down below
 Em 
Down under, mining
 G 
Down under, mining
 Am G C Em 
The dust chokes above and it chokes down below
 Em 
Down under, mining
 G 
Down under, mining
 Am G C Em 
The dust chokes above and it chokes down below

Everything Is Caving chords – Dear Reader

 Capo on 2nd fret.


 G Am 
Why is it that sadness doesn't make a sound?
    Em C 
I don't want you around
 G Am 
I gave you all I had, then you swiftly gave it back
   Em C 
I don't know what you want


  D Em C Am 
(Ooooooh... Oooooh)       (x2)

 G Am 
Everything is caving, falling into ruin
  Em C 
Everybody learns
 G Am 
We spend most our lives just picking up the mess
     Em C 
But there is never less


 D Em C Am 
Ooooooh... Oooooh.        (x2)


 G Am 
A broken little boy from the window where he fell
   Em C 
I did not love him well
     G Am 
If Jesus is my friend then I don't know where he went 
          Em C 
With the heart that he stole


                Em G 
I look in your eyes and there I see
              D Am 
A version of me I'd like to meet
               Em G 
While lying alone inside the dark
             D Am 
Wondering what our lives are for
                 C Em 
I must cut them out and zip them up     
                     G D 
In the palms of my hands so I can look
             Em G 
Whenever I feel like giving up
                    D Am 
But then you'd be blind so I must stop

Fox Take Your Chances chords – Dear Reader

 Capo on 6th fret

    Am G C 
At night my body aches
           G D Em 
for your warmth under the sheets
   Am G C 
I ached myself awake
     G D B7 
and opened the window

         Am G C 
I got a bucket-full in the face
     G D Em 
the snow came down in sheets
   Am G C 
I had to have a taste
              G D B7 
of some that gathered on the sill

             E7 Am D G C 
Do what you will
             E7 Am D G C 
to make you feel
              E7 Am D G C 
'cos life is dull as sin most of the time
           Em Am 
take your chances now


     Am G C 
The horizons black with smoke
      G D Em 
they say there is no hope
              Am G C 
this is the coming of the lord
          G D B7 
but he's not got to us yet


          Am G C 
so maybe I should read a book
    G D Em 
or cover my face with soot
             Am G C 
or I could kiss you on the mouth
             G D B7 
I've always wanted to do that


             E7 Am D G C 
Do what you will
             E7 Am D G C 
to make you feel
               E7 Am D G C 
'cos life is dull as sin most of the time
           Em Am 
take your chances now


             E7 Am D G C 
Do what you will
             E7 Am D G C 
to make you feel
               E7 Am D G C 
'cos life is dull as sin most of the time
           Em Am 
take your chances

27041994 chords – Dear Reader

 Capo on 7th fret


      C 
The morning was new
       G 
They stood in a queue
         D 
It was long long long
         Am 
And the sun beat down
     C G 
And Nancy and Sarah
     D Am 
And Tees and Johanna
       C Em 
They stood in a queue too

    C          
What does it mean?
      G 
What does it mean?
       D 
The thumbs are blue
          Am 
And the ballots are green
      C G 
And Nancy and Sarah
      D A 
Are singing hosanna
        C Em E 
They stood in the queue too



 D G A 
Cans in the pantry, beans in the pan
 D G A 
Try seeing the future, try if you can
 D G E 
Gun’s under the pillow with your visa application



 C G D Am 
Nancy and Sarah and Tees and Johanna
 C G D Am 
Florence and Doris and Joe and Johannes
 C G D Am 
Bessie and Violet, Margaret and Iris
 C G D Am 
Eunice and Hastings, Augustus, Elias
 C D Dm Am 
Never and Precious and Wiseman and Patience
 C D Dm Am 
Beauty, Silvia, Elvie, Masina
 C D Dm Am 
Gladstone, Lebusa, Alfred, Khutala
 C G D A 
Nancy and Sarah are singing hosanna 

Dear No One Tabs by Tori Kelly

 Dear No One
By Tori Kelly
Tab by Mikaela Sun
Capo on 6th Fret

Am7                            Em                                                             C
-----------------------------------------------------------------------------------|
------1---1---1---1-------0---0---0---0--------1---1---1---1--------1---1---1---1--|
------0---0---0---0-------0---0---0---0--------2---2---2---2--------0---0---0---0--|
------2---2---2---2-------2---2---2---2--------3---3---3---3--------2---2---2---2--|
--------------------------------------------------------------------3---3---3---3--|
-----------------------------------------------------------------------------------|

*listen to the tempo of the song

lyrics:
I like being independent
Not so much of an investment
No one to tell me what to do
I like being by myself
Dont gotta entertain anybody else
No one to answer to

But sometimes, I just want somebody to hold
Someone to give me their jacket when its cold
Got that young love even when were old
Yeah sometimes, I want someone to grab my hand
Pick me up, pull me close, be my man
I will love you till the end

So if youre out there I swear to be good to you
But Im done lookin, for my future someone
Cause when the time is right
Youll be here, but for now
Dear no one, this is your love song

I dont really like big crowds
I tend to shut people out
I like my space, yeah
But Id love to have a soul mate
God will give him to me someday
& I know itll be worth the wait

So if youre out there I swear to be good to you
But Im done lookin, for my future someone
Cause when the time is right
Youll be here, but for now
Dear no one, this is your love song

But sometimes, I just want somebody to hold
Someone to give me their jacket when its cold
Got that young love even when were old
Yeah sometimes, I want someone to grab my hand
Pick me up, pull me close, be my man
I will love you till the end

So if youre out there I swear to be good to you
But Im done lookin, for my future someone
Cause when the time is right
Youll be here, but for now
Dear no one, this is your love song

Dear Darlin chords – Olly Murs V7

 Dear Darlin  -  Olly Murs                                                K:2
 

Intro:   AM AM G 
Dear Darlin, please excuse my writing.
                               DM 
And I cant stop my hands from shaking
                         AM 
Cause Im cold and alone tonight.
   AM G 
I miss you and nothing hurts like no you.
                                DM 
And no one understands what we went through.
                                Am 
It was short. It was sweet. We tried.



           F                          
And if my words break through the wall
     G 
And meet you at your door,
                  F G G 
All I can say is Girl, I mean them all.


Chorus:
      C Em 
Dear Darlin, please excuse my writing.
                               AM 
And I cant stop my hands from shaking
                           F 
Cause Im cold and alone tonight.
   C Em 
I miss you and nothing hurts like no you.
                                AM 
And no one understands what we went through.
                                F F   
It was short. It was sweet. We tried.


G G----


      AM G 
Been thinking about the bar we drank in
                           DM 
Feeling like the sofa was sinking.
                                Am 
I was warm in the hope of your eyes.


          F                          
So if my words break through the wall
     G 
And meet you at your door,
                  F G 
All I can say is Girl, I mean them all.








    F AM7 G G  
Oh I  concur
       F AM7 G G 
These arms are yours to hold.

 C C EM EM AM AM F F C Em 
I miss you and nothing hurts like no you.
                                AM 
And no one understands what we went through.
                                F F   
It was short. It was sweet. We tried.
    C -------
We tried

Echo Tabs by The Dear Hunter

 -------------------------------------------------------------------------------
                             Echo - The Dear Hunter
-------------------------------------------------------------------------------
: ford.adm


Tuning: Standard EADGBE

Intro:                                                                  :x2
e|----------------------------------------------------|----------------------|
B|----------------------------------------------------|----------------------|
G|----------------------------------------------------|------12---12\--------|
D|-----------------------------------------9----------|------12---12\--------|
A|----7--7--------5h7-7------7--7-----9h11---11p9--7--|------10---10\--------|
E|0-0-------0--0--------0--0-------0------------------|----------------------|
                                                                                :x4
e|---------------------------------------------------------------------------|
B|---------------------------------------------------------------------------|
G|---------------------------------------------------------------------------|
D|-----------------------------------------9---------------------------------|
A|----7--7--------5h7-7------7--7-----9h11---11p9--7-------------------------|
E|0-0-------0--0--------0--0-------0-----------------------------------------|

Verse:1
   Gtr 1                                                                        x2
e|---------------------------------------------------------------------------|
B|---------------------------------------------------------------------------|
G|---------------------------------------------------------------------------|
D|-----------------------------------------9---------------------------------|
A|----7--7--------5h7-7------7--7-----9h11---11p9--7-------------------------|
E|0-0-------0--0--------0--0-------0-----------------------------------------|
 |
 | Gtr 2
e|---------------------------------------------------------------------------|
B|---------------------------------------------------------------------------|
G|---------------------------------------------------------------------------|
D|--2------------------------------------------------------------------------|
A|--2------------------------------------------------------------------------|
E|--0------------------------------------------------------------------------|

   Both: “Tongue to my teeth...”
e|---------------------------------------------------------------------------|
B|---------------------------------------------------------------------------|
G|--2------------5----------7------------------------------------------------|
D|--2------------5----5-----7----5----2--------------------------------------|
A|--0------------3----5-----5----5----2--------------------------------------|
E|--------------------3----------3----0--------------------------------------|

e|---------------------------------------------------------------------------|
B|---------------------------------------------------------------------------|
G|---------------------------------------------------------------------------|
D|-----------------------------------------9---------------------------------|
A|----7--7--------5h7-7------7--7-----9h11---11p9--7-------------------------|
E|0-0-------0--0--------0--0-------0-----------------------------------------|
 |


Repeat Verse 

   Both:
e|---------------------------------xxx--------xxx--------xxx--------xxx------|
B|---------------------------------xxx--------xxx--------xxx--------xxx------|
G|--2----5----------7---------9-9\-xxx---9-9\-xxx---9-9\-xxx---9-9\-xxx------|
D|--2----5----5-----7----5----9-9\-xxx---9-9\-xxx---9-9\-xxx---9-9\-xxx------|
A|--0----3----5-----5----5----7-7\-xxx---7-7\-xxx---7-7\-xxx---7-7\-xxx------|
E|------------3----------3---------xxx--------xxx--------xxx--------xxx------|


Chorus
  

Dear God I Hate Myself chords – Xiu Xiu

 -------------------------------------------------------------------------------
                             DEAR GOD, I HATE MYSELF - Xiu Xiu
-------------------------------------------------------------------------------
:Justin
sdjustinr

Tuning: Standard
Time Signature: Common time
 
Notes: At it's core this is a simple, easy and satisfying acoustic guitar song. 
Impress your friends and make your parents proud by singing this
anthemic ode to self-flagellation.

  
      Em D D/F# C7 C G A 

e|---0-----0----x----0-----0-----3-----5----|
B|---0-----0----3----0-----1-----3-----5----|
G|---0-----7----2----5-----0-----4-----6----|
D|---2-----7----0----5-----2-----5-----7----|
A|---2-----5----0----3-----3-----5-----7----|
E|---0----------2----------------3-----5----|

  |         |         |         |         |         |         |         |
   Em D C7  
                   despair will hold    a place in       my        heart
        a   bigger    one than  you       do        do        do
      and   i will    always         be   nicer        to the cat
                 than i am           to   you       you       you 

  |         |         |         |         |         |         |         |
   D C G 
       dear      God,      i         hate      my        self
       dear God, i    hate   my      self       
     and    i will    never          be   happy
     and    i'll      never          feel           normal

  |         |         |         |         |         |         |         |
   Em D C7 
              (don't  ask me    if this   line is  about you)

  |         |         |         |         |         |         |         |
   Em D/F# 
                      what do        they do there      tonite    tonite?
                      why  do        they go there      alright  alright?
   C7 D/F# 
                      why  do        they live there    tonite    tonite?
   Em 
  why       do        they      live at         all     alright  alright?

  |         |         |         |         |         |         |         |
   D C G 
       dear      God,       i        hate      my        self
       dear God, i    hate my        self
       and  i will    never          be   happy
       and  i will    never          feel      normal

  |         |         |         |         |         |         |         |
   G A 
  |         |         |         |         |         |         |         |
   C7 
                             (instrumental - play twice)

  |         |         |         |         |         |         |         |
   Em D/F# 
                      why do    they      live there        tonite   tonite?
   Em  
 why        do        they      live  at all               alright  alright?

  |         |         |         |         |         |         |         |
   Em D C7 
                      flip off      the   mirror         as          protest
            who the   F-word        are   you       you       you?

  |         |         |         |         |         |         |         |
   D C G 
        and i will    never          be   happy
        and i will    never          feel       normal
        dear      God,      i        hate       my        self
        dear      God,      i        hate       my        self


  |         |         |         |         |         |         |         |
   G A 
  |     

My Dear Acquaintance chords – Regina Spektor

 A D/A A F#m C#7 
My dear acquaintance, it's so good to know you
       F#m C#m 
For strength of your hand 
           D E 
That is loving and giving
          A A/D                  
And a happy new year 
         A F#m C#7 
With love overflowing
         F#m C#m 
With joy in our hearts 
         E A 
For the blessed new year

 C#m F#7 Bm E 
Raise your glass and we'll have a cheer
 A F#m B7 E 
For us all who are gathered here
          A A/D A F#m C#7 
And a happy new year to all that is living
      F#m C#m D E 
To all that is gentle, kind, and forgiving
 C#m F#7 Bm E 
Raise your glass and we'll have a cheer
       A F#m E A 
My dear acquaintance, a happy new year

      A A/D A F#m C#7 
All of those who are hither and yonder
       F#m C#m 
With love in our hearts 
           D E 
We grow fonder and fonder
 C#m F#7 Bm E 
Hail to those who we hold so dear
 A F#m B7 E 
And hail to those who are gathered here

          A A/D A F#m C#7 
And a happy new year to all that is living
      F#m C#m D E 
To all that is gentle, young, and forgiving
 C#m F#7 Bm E 
Raise your glass and we'll have a cheer
       A F#m E A 
My dear acquaintance, a happy new year

Happy new year

Dear Mister Manager – Bad Neighbors Tabs

 -----------------------------------------------------------------------------
                         Bad Neighbors - Dear Mister Manager
-----------------------------------------------------------------------------
: Jalxleo

Tuning: Drop D DADGBe

Awesome band, might tab out more songs by them
I'm pretty sure most of it's right

INTRO
Guitar 1 
e|2-------2-7-------7|  |2-------2--7|
B|--3---3-----8---8--|  |--3---3-----|
G|-------------------|X3|------------|
D|0---0-----5---5----|  |0---0------5|
A|-------------------|  |------------|
D|-------------------|  |------------|

Verse 
Guitar 1
e|2-------2-7-------7|
B|--3---3-----8---8--|
G|-------------------|
D|0---0-----5---5----|
A|-------------------|
D|-------------------|

 Guitar 2 
e|------------2-----2|
B|--2---3-2-5---5-2--|
G|2---2--------------|
D|-------------------|
A|-------------------|
D|-------------------|

BREAK
Guitar 1
e|7-----7-----7----7----|7-----7-----7-----7----|
B|--7-----7-----7----7--|--7-----7-----7-----7--|
G|----------------------|-----------------------|
D|----5-----5-----5----5|----5-----5-----5-----5|
A|----------------------|-----------------------|
D|----------------------|-----------------------|

Guitar 2
e|11--------------------|12---------------------|
B|11--------------------|12---------------------|
G|11--------------------|12---------------------|
D|----------------------|-----------------------|
A|----------------------|-----------------------|
D|----------------------|-----------------------|

VERSE
Guitar 1
e|2-------2-7-------7|
B|--3---3-----8---8--|
G|-------------------|
D|0---0-----5---5----|
A|-------------------|
D|-------------------|

 
Guitar 2 
e|------------2-----2|
B|--2---3-2-5---5-2--|
G|2---2--------------|
D|-------------------|
A|-------------------|
D|-------------------|

Solo
Guitar 2
e|-------------------|
B|-------------------|
G|-------------------|
D|4-4-4-4-4-4-4-9-9-9|
A|4-4-4-4-4-4-4-9-9-9|
D|4-4-4-4-4-4-4-9-9-9|

Guitar 1
e|--------------------------------------------------------|
B|---10---------10/12-10------10--------------------------|
G|11----11-9-11----------11-9----11-9-11-9---------------9|
D|-----------------------------------------12-11-9-11-12--|
A|--------------------------------------------------------|
D|--------------------------------------------------------|

Outro
Guitar 1
e|--------------------------------------------|
B|---------------10-10----------------10h12p10|
G|11-9----9-11-9-------11-9----9-11-9---------|
D|-----12-------------------12----------------|
A|--------------------------------------------|
D|--------------------------------------------|

Guitar 2
e|--------------------------------------------|
B|--5---------------------5-------------------|
G|7---7-----------------7---7-----------------|
D|--------------------------------------------|
A|--------------------------------------------|
D|--------------------------------------------|


************************************

| /   slide up
| \   slide down
| h   hammer-on
| p   pull-off
| ~   vibrato
| +   harmonic
| x   Mute note
| b   Bend
| pb  Pre-bend
| br  Bend release
| pbr Pre-bend release
| brb Bend release bend

************************************

Anarchy My Dear chords – Say Anything

 My First time ever putting anything on here so, I know its really close, but some 
parts maybe a little off.



 G D D 
Anarchy, your wish is my command
   
      Am 
I'll free the atom from it's cell
       
        C D 
And place it in your hand

 G D D 
Reach beneath my coat of winter fat

     Am 
And tear my beating heart out

          C D 
With the beauty and the brat

    Am C D Am 
Oh love, like a falling star I fell for you

 Am C D Am 
Do anything you want me to

 Am C D 
And most of all, I'd die for you

       A 
It's true 

                         C D 
You touch the world and all is set askew


KEEPS REPEATING THIS PATTERN OF CHORDS FOR REST OF SONG


Anarchy, my dear
The brazen and the queer
We bow before you, Anarchy, my dear
Anarchy, my dame
I quiver at your name
I bow before you, baby born in flames

I dream of days that we might share
Where god's no useless effigy, of something barely there
But all these kings become our clowns
And I will serenade the choice we made, to burn the mother down
Oh love, like a synonym defined by you
Feel hope cause I'm reminded to, by you
The fools surmise they blinded you
It's true, your love unlearned, the broken life anew

Anarchy, my dear 
The brazen and the queer
We bow before you, Anarchy, my dear
Anarchy, my dame
I quiver at your name
I bow before you, baby born in flames

You coat me in blasphemy, well once I was so blind
The beauty and the spacious skies, with boundaries undefined 
You whisper tunes in my ear drums as we lay here entwined
Search for love for oh so long but one day I will find
Find you!
Alright!

Anarchy, my dear
The brazen and the queer
We bow before you, Anarchy, my dear
Anarchy, my dame
I quiver at your name
I bow before thee, baby born in flames

Anarchy, my dear
The crazy and the queer
We bow before you, Anarchy my dear
Anarchy, my dame
I quiver at your name
I bow before you, baby born in flames