Tag: death

Valley Of Death chords – Glen Campbell

 Valley of Death
Glen Campbell

Intro   Dm C Dm C   

Verse 1

 Dm 
Ridin' through death valley
 Gm Bb 
Turning back the time
 Gm Am Dm F Dm 
To the days of long ago in 18 4 9 
            Gm Dm 
I hear the wind a whispering
 Gm C# 
It sounds like the breath
        Gm C 
of the ones who died before me
        Dm C Dm   
In the valley of deathhhh

Chorus 1

 Bb Gm 
See the sun shining
 Am F 
Sands so hot and dry
 Gm Am 
see the covered wagons
      Dm Gm Dm 
That brought them here to die
 Bb Gm 
Now I hear the whisper
 Am F 
of each fated breath
        Gm Am 
Of the ones who came before me
        Dm C Dm C         
To the valley of deathhhh

Verse 2

 Dm 
Hear the wheels a rolling
 Gm 
Wagons headed west
                                  C 
They found they're final resting place
        Dm 
In the valley of death
            Gm Dm 
I hear the wind a whispering
 Gm 
It sounds like the breath
                         C 
of the ones who died before me
         Dm C Dm 
In the valley of deathhh

Chorus 2

 Bb Gm 
See the sun shining
 Am F 
Sands so hot and dry
   Gm Am 
I see the covered wagons
      Dm Gm Dm 
That brought them here to die
 Bb Gm 
Now I hear the whisper
 Am F 
of each fated breath
        Gm Am 
Of the ones who came before me
        Dm C Dm C F C Dm 
To the valley of deathhhhhhhhhhhhhhhhh

flyinglibra51
God Bless Glen Travis Campbell

No Death Tabs – Mirel Wagner

 -------------------------------------------------------------------------------
                             NO DEATH - Mirel Wagner
-------------------------------------------------------------------------------
Fingerpicking pattern

Capo 4th fret
Chord shapes resp. to capo


Intro and Verse:

      Am                                             Dm (just lift 2nd finger)
e|---------------------------------------------------------------------------|
B|----------5-----------------------5------------------------5---------------|
G|-------6------------6---------6------------6-----------6------------6------|
D|---------------------------------------------------0------------0----------|
A|---0------------0---------0------------0-----------------------------------|
E|---------------------------------------------------------------------------|
     Am                     Dm                  Am
e|---------------------------------------------------------------------------|
B|------------5-------------------5--------------------5---------------------|
G|--------6-----------6--------6---------6---------6-------------6-----------|
D|----6-----------6---------0---------0--------6-------------6---------------|
A|---------------------------------------------------------------------------|
E|---------------------------------------------------------------------------|
   Em                   Am
e|---------------------------------------------------------------------------|
B|---------0------------------5----------------------------------------------|
G|------0---------0--------6----------6--------------------------------------|
D|---------------------------------------------------------------------------|
A|----------------------0---------0------------------------------------------|
E|--0---------0--------------------------------------------------------------|


Chorus:

 3x       C                                         G
e|---------------------------------------------------------------------------|
B|---------------5--------------------5-------------------0------------------|
G|-----------0-----------0--------0-----------0--------0-----------0---------|
D|---------------------------------------------------------------------------|
A|---6----7-----------7--------7-----------7--------6-----------6------------|
E|---------------------------------------------------------------------------|

e|---------------------------------------------------------------------------|
B|---------0-----------------------------------------------------------------|
G|------0--------0-----------------------------------------------------------|
D|---------------------------------------------------------------------------|
A|---6--------6--------------------------------------------------------------|
E|---------------------------------------------------------------------------|

3x    Am                 Em
e|---------------------------------------------------------------------------|
B|----------5-------------------0--------------------------------------------|
G|-------6--------6----------0-----------0-----------------------------------|
D|---------------------------------------------------------------------------|
A|----0-------0--------------------------------------------------------------|
E|-----------------------0-----------0---------------------------------------|
2x    Am
e|---------------------------------------------------------------------------|
B|-----------5---------------------------------------------------------------|
G|--------6---------6--------------------------------------------------------|
D|---------------------------------------------------------------------------|
A|---------------------------------------------------------------------------|
E|----0----------0-----------------------------------------------------------|


I Will Follow You Into The Dark Acoustic chords – Death Cab For Cutie

 Death Cab for Cutie - I Will Follow You Into the Dark Acoustic
From The World Famous KROQ (2015)
Comment for any corrections and please rate


Capo 5

Intro:
 Am C F C G/B Am C G Am C E Am G F Fm C/G C/G Am/E 
Love of mine, someday you will die
               F 
But I'll be close behind
              C G 
I'll follow you into the dark
      C/G Am/E 
No blinding light or tunnels to gates of white
                  F 
Just our hands clasped so tight
          C G 
Waiting for the hint of a spark

     Am C 
If Heaven and Hell decide
            F C G/B 
That they both are satisfied
    Am C G 
Illuminate the No's on their vacancy signs
      Am C 
If there's no one beside you
            E Am G 
When your soul embarks
      F Fm C/G 
Then I'll follow you into the dark

     C/G Am/E 
In Catholic school as vicious as Roman rule
            F C G 
I got my knuckles bruised by a lady in black
        C/G Am/E 
And I held my tongue as she told me
                    F 
"Son, fear is the heart of love"
       C G 
So I never went back

     Am C 
If Heaven and Hell decide
            F C G/B 
That they both are satisfied
    Am C G 
Illuminate the No's on their vacancy signs
      Am C 
If there's no one beside you
            E Am G 
When your soul embarks
      F Fm C/G 
Then I'll follow you into the dark

  C/G Am/E 
You and me have seen everything to see
                  F 
From Bangkok to Calgary
          C G C/G 
And the soles of our shoes are all worn down
                Am/E 
The time for sleep is now
                   F 
It's nothing to cry about
               C G 
'Cause we'll hold each other soon
          Am F 
In the blackest of rooms

     Am C 
If Heaven and Hell decide
            F C G/B 
That they both are satisfied
    Am C G 
Illuminate the No's on their vacancy signs
      Am C 
If there's no one beside you
            E Am G 
When your soul embarks
      F Fm C Am 
Then I'll follow you into the dark
      F Fm C/G 
Then I'll follow you into the dark

Ball And Chain chords – Murder by Death

 Ball and Chain
Murder by Death

After years and years of taking, I have finally contributed.

Em/B 1 X X X 4 5 3

This version is tabbed with 1 step down tuning, as performed acoustically. (youtu.be/adE6sW1Oh4Y)

Intro
 Am Dm Em/B Dm E Dm Em/B Dm E Am E Am Am Dm Em/B Dm E 
When I fall, I         fall hard.
 Dm Dm Em/B Dm E 
My body b--------ruises at your touch,
    Am E 
my  ankles bear these lover's scars.
     Am Dm Em/B Dm E 
The  weight is heavy, but         necessary.
        Dm Dm Em/B Dm Am E Am 
You'll  never change          my ball and chain. 

Chorus
 Dm Am 
My ball and chain you  will remain.
 Em Am E Am 
You've always been my ball and chain. 


Guitar Solo

 Am Dm Em/B Dm E 
She lingers somewhere I         cannot find.
 DM Dm Em/B Dm 
My lover stands         upon the shore,
      Am E 
it's me she should be waiting for.
     Am Dm Em/B Dm E 
The  distance binds us          locked in twain.
     Dm Dm Em/B Dm Am E Am 
You will remain         my ball and chain.

Chorus
 Dm Am 
My ball and chain you  will remain.
 Em Am E Am 
You've always been my ball and chain. 


Interude
 Am Dm E Am Am Dm E Am F Am E Am F E Am Am Dm Am Dm E 


Chorus
 Dm Am 
My ball and chain you  will remain.
 Em Am E Am 
You've always been my ball and chain. 

Death Of A Ladies Man chords – Leonard Cohen

 Leonard Cohen - Death of a Ladies' Man (1977)
Chords 30/11-2015 by Jon Malmin (jogusmal@hotmail.com)
Tuning: Standard E (Capo 3rd fret)

Strumming pattern (dots denote sixteenth notes):
[1 . . . 2 . . . 3 . . . 4 . . .]
[D   D   D   D U D   D   D   D U]


Intro:  D E7 Em A7 G D  (x2)


Verse 1:
        D E7 
Ah the man she wanted all her life was hanging by a thread
     Em A7 G D 
"I never even knew how much I wanted you," she said.
      D E7 
His muscles they were numbered and his style was obsolete.
     Em A7 G D 
"Oh baby, I have come too late." She knelt beside his feet.


Verse 2:
        D E7 
"I'll never see a face like yours in years of men to come
       Em A7 G D 
I'll never see such arms again in wrestling or in love."
     D E7 
And all his virtues burning in the smoky Holocaust
     Em A7 G D 
She took unto herself most everything her lover lost


Bridge 1:
 Bm  
........Now the master of this landscape he was standing at the view
         Em 
with a sparrow of St. Francis that he was preaching to
      F#m 
She beckoned to the sentry of his high religious mood
                  Em Em/D# Em/D A7 
She said, "I'll make a place between my legs, I'll show you solitude."


Interlude:   D 


Verse 3:
     D E7 
He offered her an orgy in a many mirrored room
    Em A7 G D 
He promised her protection for the issue of her womb
     D E7              
She moved her body hard against a sharpened metal spoon
      Em A7 G D 
She stopped the bloody rituals of passage to the moon

Piano solo backing:
 D E7 Em A7 G D   (x2)
 D  (for 2 bars)


Verse 4:
      D E7 
She took his much admired oriental frame of mind
         Em A7 G D 
and the heart-of-darkness alibi his money hides behind
      D E7 
She took his blonde madonna and his monastery wine
        Em A7 G D 
"This mental space is occupied and everything is mine."


Interlude:  D  (for 2 bars)


Verse 5:
     D E7 
He tried to make a final stand beside the railway track
                Em A7 G D 
She said, "The art of longing's over and it's never coming back."
     D E7 
She took his tavern parliament, his cap, his cocky dance,
     Em A7 G D 
She mocked his female fashions and his working-class moustache.


Bridge 2:
 Bm                      
........Now the last time that I saw him he was trying hard to get
    Em 
A woman's education but he's not a woman yet
         F#m 
And the last time that I saw her she was living with some boy
      Em Em/D# Em/D A7 
Who gives her soul an empty room and gives her body joy.


Last verse:
               D E7 
So the great affair is over but whoever would have guessed
           Em A7 G D 
It would leave us all so vacant and so deeply unimpressed?
      D E7  
It's like our visit to th

Angel Of Small Death The Codeine Scene solo Tabs – Hozier V3

 -------------------------------------------------------------------------------------------------
Hozier - Angel Of Small Death & The Codeine Scene
-------------------------------------------------------------------------------------------------

First of all, I haven't written the tabs myself. I have found someone on YouTube who made a small tutorial.
So all the thanks here should go to him. It's a fearly easy solo to learn but a fun one to play.

Link: https://www.youtube.com/watch?v=0oVhO46ETWs (Be shure to check it out and like his video!)

I've seen Hozier playing it live on video and this seems really accurate. Solo starts at 2:06

Link: https://www.youtube.com/watch?v=txEI3PEOsPE


Solo: standard tuning

e|---------------------------------------------------------------|
B|---------------------------------------------------------------|
G|--4(b)6--4--2--4(b)6--4--2---2---------------2-----------------|
D|---------------------------4---4------2--4-4-------------------|
A|----------------------------------2/4--------------------------|
E|---------------------------------------------------------------|

e|---------------------------------------------------------------|
B|---------------------------------------------------------------|
G|--4(b)6--4--2-----2--------------------------------------------|
D|----------------4---4--------2--4-4----------------------------|
A|-----------------------2/4-------------------------------------|
E|---------------------------------------------------------------|

e|---------------------------------------------------------------|
B|-----5---7--5--------------------------------------------------|
G|--/6---6------6/4--2--4--2--2-1--------------------------------|
D|---------------------------------------------------------------|
A|---------------------------------------------------------------|
E|---------------------------------------------------------------|

e|---------------------------------------------------------------|
B|---------------------------------------------------------------|
G|--4(b)6--4--2-----2--------------------------------------------|
D|----------------4---4--------2--4-4----------------------------|
A|-----------------------2/4-------------------------------------|
E|---------------------------------------------------------------|


Enjoy!


Hakke

Vulcan Death Grip Tabs – Old Gray

 -------------------------------------------------------------------------------
                             OLD GRAY - Vulcan Death Grip
-------------------------------------------------------------------------------
: Mike


Tuning: FACGCE
Guitar One (Cam)
Intro + verse
Strum these chords
e|-3---5---0--------------------------------------------------------------------|
B|-0---0---0--------------------------------------------------------------------|
G|-0---0---0--------------------------------------------------------------------|
D|-0---4---7--------------------------------------------------------------------|
A|-3---0---8--------------------------------------------------------------------|
E|-2---4---0--------------------------------------------------------------------|

Also throw in these little bits in the intro
e|-7---5---3--------------------------------------------------------------------|
B|-0---0---0--------------------------------------------------------------------|
G|-0---0---0--------------------------------------------------------------------|
D|-0---0---0--------------------------------------------------------------------|
A|-0---0---0--------------------------------------------------------------------|
E|-0---0---0--------------------------------------------------------------------|


"Well look at us nowwww"
e|---------------------------------------------------------------------------|
B|---------------------------------------------------------------------------|
G|---------------------------------------------------------------------------|
D|--------------------------------------------0h2p0-------------0h2p0--------|
A|-------------0h2p4---------------0-0-0-0h2h3------0-0-0-0h2h3--------------|
E|-0-0-0-0h2h4-------0-0-0-0h2h4---------------------------------------------|
^same thing throughout the bridge with the little caesura for "i don't know where i am..."

"MAYBE SOMEDAY YOU WILL LOVE ME" (strummed)
e|-0----0----0------------------------------------------------------------------|
B|-0----0----0------------------------------------------------------------------|
G|-0----9----0------------------------------------------------------------------|
D|-7----0----0------------------------------------------------------------------|
A|-8----0----3------------------------------------------------------------------|
E|-0----7----2------------------------------------------------------------------|

Guitar Two (Raph)
Intro is the same as guitar one, so here's the verse lead part
e|-------------------------------------------------------------------------------------|
B|--------------------------------------------------------12h14p12---------------------|
G|-9-9-9-9-9-9-9-7-7-7-7-7-7-7h9-5-12-12-12-12-12-12-12h14--------14-12----------------|
D|-------------------------------------------------------------------------------------|
A|-------------------------------------------------------------------------------------|
E|-------------------------------------------------------------------------------------|
Bridge
e|--------------------------------------------------------------------------------------|
B|-----------------------------------7--------------------------------------------------|
G|-9-9-9-9---9-9-9-9---7-7-7-7p5--777---------------------------------------------------|
D|--------------------------------------------------------------------------------------|
A|--------------------------------------------------------------------------------------|
E|--------------------------------------------------------------------------------------|
Before "maybe someday you will love me"
e|---0-----------------------------------------------------------------------|
B|----0----------------------------------------------------------------------|
G|-----0---------------------------------------------------------------------|
D|---------------------------------------------------------------------------|
A|----

Death Valley 69 chords – Sonic Youth

 DEATH VALLEY 69
Sonic Youth
Drop D Tuning
 E  = 222000
 G  = 555000
 D  = 000323
 A  = 002220

 E 
Coming down
 G 
Sadie I love it
 D 
Now now now
 A 
Death Valley ’69

 E 
You’re right 
 G 
You’re right 
 D 
You’re right
  A 
You’re right 

 E 
You’re right [You were right]
 G 
I was on the wrong track
 D 
We’re deep in the valley
 A 
How deep in the gulley

 E 
And now in the canyon
 G 
Way out in the yonder
 D 
She started to holler
 A 
She started to holler

 E 
I didn’t wanna
 G 
I didn’t wanna
 D 
I didn’t wanna
 A 
I didn’t wanna

 E 
But she started to holler
 G 
So I had to hit it
 D 
Hit it
 A 
Hit it

 E 
Deep in the valley
 G 
In the trunk of an old car
 D 
In the back of a Chevy
 A 
I got sand in my mouth [You got sand in yr mouth]

 E 
And you got sun in yr eyes [I got sun in my eyes]
 G 
Blinded
 D 
And you wanted to get there
 A 
But I couldn’t go faster [I wanted to get there]

 E 
And it couldn’t go faster [But you couldn't go faster]
 G 
So I started to hit it [You couldn’t go faster]
 D 
So I started to hit it
 A 
And I started to hit it [Hit it]

 E 
Hit it 
 G 
Hit it 
 D 
Hit it 
 A 
Hit it 

 E 
Coming down
 G 
Sadie I love it
 D 
Now now now
 A 
Death Valley ’69 

 E 
Death Valley ’69 
 G 
Death Valley ’69 
 D 
Death Valley ’69 
 A 
Death Valley ’69 


All Is Full Of Love chords – Death Cab For Cutie

 All is Full of Love

In verses:
*Bm might also be Bm11
*G might also be G6
*Cmaj7 might also be C or Csus2

Intro:
 Bm G Cmaj7 

Verse:
 Bm G Cmaj7 
You'll be given love, You'll be taken care of
 Bm G Cmaj7 
You'll be given love, You have to trust it

Chorus:
 C Bm 
Maybe not from the sources
 C Bm 
You have poured yours
 C Bm 
Maybe not from the direction
 C Bm 
You are staring at

Verse:
 Bm G Cmaj7 
Twist your head around, It's all around you
 Bm G Cmaj7 
All is full of love, All around you

Bridge:
 C Em 
(All is full of love), You just ain't receiving
 C Em 
(All is full of love), Your phone is off the hook
 C Em 
(All is full of love),Your doors are all shut
 C Em 
(All is full of love), In any language,

 C Em 
(all is full of love), All is full of love.
 C Em 
(all is full of love), All is full of love.
 C Em 
(all is full of love), Yeah...


Outro:
 Em C Em 
All is full of love.
 Em C Em 
All is full of love.
 Em C Em 
All is full of love.
 Em C Em 
All is full of love.

 Em C Em Em C

The Ghosts Of Beverly Drive Tabs by Death Cab For Cutie V2

 This is being posted the day after it came out on Spotify!
Standard tuning (EADGBe).
I'm not sure of the chords, I might figure them out.
This is a great song from the self-named single!
If you have any questions, email me at winslowjisawesome (please tell me what I did wrong)!
The part that goes "I don't know why I don't know why" is really hard to hear, but it sounds good if you
 just do the solo.

Intro

E|-------------------------------------|
A|-------------------------------------|
D|-------------------------------------|
G|-------------------------------------|
B|0-0-0--0-0-0--0-0--0-0-0--0-0--------|
E|------------------------------0-1-0-1|

Verse x2
E|-----------------| x3
A|-----------------|
D|-----------------|
G|-----------------|
B|0-0-0--0-0-0--0-0|
E|-----------------|

E|--------------------|
A|--------------------|
D|--------------------|
G|--------------------|
B|0-0-0--0-0-0--------|
E|-------------0-1-0-1|

Solo
E|--------------------|
A|5-5-5-5-5-5--3-2----|
D|--------------------|
G|--------------------|
B|--------------------|
E|--------------------|

E|--------------------|
A|5-5-5-5-5-5--7-2----|
D|--------------------|
G|--------------------|
B|--------------------|
E|--------------------|

E|---------------------------------------------|
A|5-5-5-5-5--5-3-2-2---------------------------|
D|-------------------2-2-2-2-2--2--2--2--4-4-4-|
G|---------------------------------------------|
B|---------------------------------------------|
E|---------------------------------------------|

E|--------------------|
A|5-5-5-5-7-3-5-2-----|
D|--------------------|
G|--------------------|
B|--------------------|
E|--------------------|

E|--------------------|
A|5-5-5-5-5--7-2------|
D|--------------------|
G|--------------------|
B|--------------------|
E|--------------------|

E|--------------------|
A|5-5-5-5-7-3-5-2--2--|
D|--------------------|
G|--------------------|
B|--------------------|
E|--------------------|

E|---------------------------|
A|---------------------------|
D|-2-2-2-2-2--2--2--2--4-4-4-|
G|---------------------------|
B|---------------------------|
E|---------------------------|

Verse x2
E|-----------------| x3
A|-----------------|
D|-----------------|
G|-----------------|
B|0-0-0--0-0-0--0-0|
E|-----------------|

E|--------------------|
A|--------------------|
D|--------------------|
G|--------------------|
B|0-0-0--0-0-0--------|
E|-------------0-1-0-1|

Solo
E|--------------------|
A|5-5-5-5-5-5--3-2----|
D|--------------------|
G|--------------------|
B|--------------------|
E|--------------------|

E|--------------------|
A|5-5-5-5-5-5--7-2----|
D|--------------------|
G|--------------------|
B|--------------------|
E|--------------------|

E|---------------------------------------------|
A|5-5-5-5-5--5-3-2-2---------------------------|
D|-------------------2-2-2-2-2--2--2--2--4-4-4-|
G|---------------------------------------------|
B|---------------------------------------------|
E|---------------------------------------------|

E|--------------------|
A|5-5-5-5-7-3-5-2-----|
D|--------------------|
G|--------------------|
B|--------------------|
E|--------------------|

E|--------------------|
A|5-5-5-5-5--7-10-----|
D|--------------------|
G|--------------------|
B|--------------------|
E|--------------------|

E|--------------------|
A|5-5-5-5-7-3-5-2--2--|
D|--------------------|
G|--------------------|
B|--------------------|
E|--------------------|

E|----------------------------|
A|----------------------------|
D|-2-2-2-2-2--2--2--2--4-4-4--|
G|----------------------------|
B|----------------------------|
E|----------------------------|

Drum solo

Chorus x4(play solo, it sounds good)

Very last time ends like this:

E|-0-0-3-0-3-0-3-0----|
A|--------------------|
D|--------------------|
G|--------------------|
B|--------------------|
E|--------------------|

Please email me so I can make this perfect! (Or comment here! |)
                                   

Black Sun chords – Death Cab For Cutie V2

 Death Cab For Cutie - Black Sun
Capo 7th   
Intro
  Em               | D                | Am                |                 ||x2
-----------------|----------------|-----------------|-----------------|
-----------------|----------------|-----------------|-----------------|
-----------------|----------------|-----------------|-----------------|
-2---2---2---2---|0---0---0---0---|-----------------|-7---7---7---7---|
---2---2---2---2-|--2---2---2---2-|-0---0---0---0---|---0---0---0---0-|
-----------------|----------------|---3---3---3---3-|-----------------|


Verse 1
 Em D Am 
 There is whisky in the water and there is death upon the vine
 Em D                                    
 There is fear in the eyes of your father 
Am                                   Em*  (A)-7-7-7-5--
 And there is "Yours" and there is "Mine" (E)--0-0-0-0-
 Em D Am 
 There is a desert veiled in pavement and there's a city of seven hills
Em                               D    Am                         Em** (A)-7-5-7-5--
 And all our debris flows to the ocean to meet again, I hope it will  (E)--0-0-0-0-


Chorus
      C G/B       Dadd4(9)     Em 
---------------------------------------------
--------1----------3--------5----------8-----
-------0--0-------0--0-----0--0-------0--0---
------2----2-----0----0---4----4-----5----5--
-----3----------2--------5----------7--------
---------------------------------------------
How could something so fair be so cruel
        C G/B D Em 
When this black sun revolved around you


Interlude     Em     | D      | Am     |      ||


Verse 2
 Em D Am 
 There is an answer in a question and there is hope within despair
 Em D Am                 Em*
 And there is beauty in a failure and there are depths beyond compare
 Em D Am 
 There is a role of a lifetime and there's a song yet to be sung
 Em D Am                              Em**
 And there's a dumpster in the driveway of all the plans that came undone


Chorus
      C G/B D Em 
How could something so fair be so cruel
        C G/B D Em 
When this black sun revolved around you
      C G/B D Em 
How could something so fair be so cruel
        C G/B D Em 
When this black sun revolved around you


Solo   Em     | D      | Am      |      |
       Em     | D      | Am      | Em     ||


Verse 3
 Em D Am 
 There is whisky in the water and there is death upon the vine
 Em D       Em**
 And there is grace within forgiveness but it's so hard for me to find



Chorus
      C G/B D Em 
How could something so fair be so cruel
        C G/B D Em 
When this black sun revolved around you
      C G/B D Em 
How could something so fair be so cruel
        C G/B D Em 
When this black sun revolved around you

Near Death Experience Experience chords – Andrew Bird

 Intro tab already existed.(thank you) 
I figured out the chords.(Maybe)
First time submitting. Open to changes and comments.
Thanks.
Skian

Near Death Experience Experience
Andrew Bird


e|--3--2--0-----0----------------------------------------------|
B|-----------0-----4--2-----2--1-------------------------------|
G|-----------------------1--------3-----3--2--0-----0----------|
D|-----------------------------------3-----------0-----4--2----|
A|-----------------------------------------------------------2-|
E|-------------------------------------------------------------|

e|---------------------------------------------------------------------------------------|
B|---------------------------------------------------------------------------------------|
G|----1-----------------------0-----------------------------------------------------0--2-|
D|-2-----4-----4--3--1-----1-----3-----3--2--0-----0--4--2-----2-----------0--2--3-------|
A|----------4-----------1-----------3-----------0-----------2-----0--2--4----------------|
E|---------------------------------------------------------------------------------------|

Intro:  Dm A Bb F Dm A Bb F 
Used to be like toffee in a kitten's teeth
 Dm A 
Used to build air raid shelters out of sticks and leaves
 Bb F 
And spend the whole day underneath

 Dm A 
Used to be like copper
 Bb F 
Pliable but strong
 Dm A 
Used to smile and nod and say you're right be polite 
 Bb Fmaj7 
When you know that everybody's wrong
 Bb Fmaj7 
Know that everybody's wrong
 Bb E 
Know that everybody's wrong
 
 Dm A 
So you dare the plane to crash
 Bb F 
Redeem the miles for cash when it starts to dive
 Dm A 
And we'll dance like cancer survivors
 Bb F 
Like you're grateful simply to be alive


 Dm A 
Dare the plane to crash
 Bb F 
Redeem the miles for cash
 Dm A 
And we'll dance like cancer survivors
 Bb E 
Like the prognosis was that you should've died


 Dm A Bb F Dm A 
No there's nothing wrong
 Bb F 
There's nothing wrong when it starts to dive
 Dm A 
And we'll dance like cancer survivors
 Bb F 
Like we're grateful simply to be alive

 Dm A 
No there's nothing wrong
 Bb F 
There's nothing wrong when it starts to dive
 Dm A 
And we'll dance like cancer survivors


 Dm A Bb F

Under And Over It Tabs – Five Finger Death Punch V2

 -----------------------------------------------------------------------------------------
|                      FIVE FINGER DEATH PUNCH - UNDER AND OVER IT                      |
|                            American Capitalist (2011)                           |
-----------------------------------------------------------------------------------------
           If you have questions or corrections feel free to send me a message:
                        http://profile.ultimate-guitar.com/godspeedy/
                           https://www.facebook.com/Godspeedy14
                           
        Also, check out my Youtube channel: http://www.youtube.com/user/Godspeedy14

                                  Tuning: 6 string BEADF#B 
                                                        
**************************************GUITAR NOTATIONS***********************************
*                                                                                       *
*                                | *   palm mute         |                              *
*                                | s   slide             |                              *
*                                | h   hammer-on         |                              *
*                                | p   pull-off          |                              *
*                                | ~   vibrato           |                              *
*                                | x   Mute note         |                              *
*                                | b   bend              |                              *
*                                | ..  let ring          |                              *
*                                                                                       *
*****************************************************************************************

-----------------------------------------------------------------------------------------
|                                    INTRO (00:00-00:25)                                |
-----------------------------------------------------------------------------------------

I. Guitars 1 and 2 (w/ dist)

 B|------------------------------|----------------------------|
F#|------------------------------|----------------------------|
 D|------------------------------|----------------------------| x4
 A|------------------------------|----------------------------|
 E|---------2--2--------------3--|---2------------------------|
 B|-3b--p0--0--0--0-3-5-3-0-0-1--|---0--0--0--0-1-3-0-1-3-1-0-|
            *  *  * * * * * *           *  *  * * * * * * * *

II. Guitars 1 and 2 (w/ dist)

 B|-------------------------|-------------------------|
F#|-------------------------|-------------------------|
 D|-------------------------|-------------------------|
 A|-------------------------|-------------------------|
 E|-2-----2-----2--3--2-----|----2-----2--2--3--2-----|
 B|-0--0--0--0--0--1--0--0--|-0--0--0--0--0--1--0--0--|\
       *     *           *    *     *              *    x2
 B|-------------------------|---------------------|    /
F#|-------------------------|---------------------|   /
 D|-------------------------|---------------------|  /
 A|-------------------------|---------------------| /
 E|-2-----2-----2--3--2--2--|--2--2--2---3--3--2--|/
 B|-0--0--0--0--0--1--0--0--|--0--0--0---1--1--0--|
       *     * 

    Guitar 3 (w/ dist)
   .......................                  ............
 B|-----7------7------|--7---7--7--8--7---|-----7------7---7--|--7--7--7--7--8--8--7--|
F#|-5-------5------5--|------5--5--6--5---|-5-------5------5--|--5--5--5--5--6--6--5--|
 D|-------------------|-------------------|-------------------|-----------------------| x2
 A|-------------------|-------------------|-------------------|-----------------------|
 E|-------------------|-------------------|-------------------|-----------------------|
 B|-------------------|-------------------|-------------------

Come Back Tabs by Death Is Our Destiny

         ########################
        # Death Is Our Destiny #
        #       Come Back      #
        ########################

        == Play in this order ==

Intro
Intro 2
Riff 1
Riff 2
Riff 1
Riff 2
Riff 3
Riff 2
Outro

        == Intro ==

e |-----------------------------------|
B |-----7-------7-------7-----9h7-----|
G |-8-------8-------8-------8-----8---|
D |---8---8---8---8---8---8---------8-|
A |-----------------------------------|
E |-----------------------------------|


        == Intro 2 ==

e |---------|
B |---------|
G |-8-8-8-8-|
D |-8-8-8-8-|
A |-6-6-6-6-|
E |---------|
    . . . .


        == Riff 1 ==

e |---------------------------------|
B |---------------------------------|
G |-8-8-8-8-8-8-8-8-6-6-6-6-4-4-----|
D |-8-8-8-8-8-8-8-8-6-6-6-6-4-4-4-4-|
A |-6-6-6-6-6-6-6-6-4-4-4-4-2-2-4-4-|
E |-----------------------------2-2-|
    . . . . . . . . . . . . . . . .


        == Riff 2 ==

e |-------------------------------------|
B |-------------------------------------|
G |-------------------------------------|
D |-6--------9--------4--------2--------| X2
A |-6--------9--------4--------2--------|
E |-4--------7--------2--------0--------|


        == Riff 3 ==

e |--------------------------------------|
B |--------------------------------------|
G |--------------------------------------|
D |-8--------11--------6--------4--------|
A |-8--------11--------6--------4--------|
E |-6--------9---------4--------2--------|


        == Outro ==

e |------------------|
B |------------------|
G |------------------|
D |-6----------------|
A |-6----------------|
E |-4----------------|

What Death Leaves Behind chords – Los Campesinos

 What Death Leaves Behind - Los Campesinos!

Tabbed my Damsk1849

It's easiest to play it when tuned down a half step, 
i. E .  Eb Ab Db Gb Bb Eb , 
but I'll just tell you the chords and you can experiment for yourself!

Intro
 Eb Gm F  x4

Verse
 Bb F Gm Eb 
I was the first match struck at the first cremation,
 Bb F Gm Eb 
you are my shallow grave, I'll tend you as a sexton
 Bb F Gm Eb 
If you're the casket door that's being slammed upon me, 
 Bb F Gm Eb 
I'll be a plague cross painted on your naked body


 Bb 
Well summer sighed and summoned up hail.
 F Gm 
Dirty dish rack drips the holy grail
( Gm )
May be heartslob but I want 'em to know,
 Eb Bb 
cut and shut us like a portmanteau
( Bb )                       F 
We sit around jus' spitballin',
( F )                              Gm 
all the witches cackle round my cauldron
( Gm )                              Eb 
Recognise the lies from my poker tongue
( Eb )   Gm 
is it true...?

Chorus
         F Eb 
They say you and me
( Eb )
are tautology
 Gm F               
What grows from the seeds,
 Eb 
can you quite believe?
 Gm F 
through cracks come the weeds,
 Eb 
Long time listener, 
 Gm F 
first time caller,
 Eb 
no need to remind me
      Gm F 
What death leaves behind me

 Bb 

Verse
 Bb F Gm Eb 
Why must I lie awake, from dust until the morning,
 Bb F Gm Eb 
through fear of bein' impaled upon errant mattress string?
 Bb F Gm Eb 
Within a waking dream I finally made my heel turn,
 Bb F Gm Eb 
lived life as Super 8 when you were promised Hilton

 Bb 
Propose me as a pardon for sins,
 F Gm 
led on barbecue I'm burnt offerings
( Gm )                                  Eb 
I proof-read the Book of Job for the Lord:
( Eb )                      Bb 
edit one, League Cup 2004
( Bb )                 F 
We, delicate as a filigree,
( F )                             Gm 
cleared a place for us in the chicory
( Gm )                             Eb 
Colosseum blood will dry in the sun
( Eb )   Gm 
is it true...?

Chorus
         F Eb 
They say you and me
( Eb )
are tautology
 Gm F               
What grows from the seeds,
 Eb 
can you quite believe?
 Gm F 
through cracks come the weeds,
 Eb 
Long time listener, 
 Gm F 
first time caller,
 Eb 
no need to remind me
      Gm F 
What death leaves behind me

 Bb Bb F Gm Eb 
We tread it carefully, we feel around in kid-gloves
 Bb F Gm Eb 
What death will leave behind, death will leave behind love
 Bb F Gm

Sunburn Tabs by Slow Warm Death

 SLOW WARM DEATH - SUNBURN






Tuning: EADGBe
http://slowwarmdeath.bandcamp.com/



INTRO:

E|------------------------------------------------------|
B|------------------------------------------------------|
G|------------------------------------------------------|
D|------------------------------------------------------|
A|--------------------5--7--5-----------------5h7p5--2--|
E|--5--5--6--7--7--7-----------7--7--5--6--7------------|



VERSE:

E|--7-------0---|
B|--7-------0---|
G|--8-------1---|
D|--9-------2---|
A|--9-------2---|
E|--7-------0---|



CHORUS:

E|--7--------2--------7--------0--------7----5----0----|
B|--7--------2--------7--------0--------7----5----0----|
G|--8--------3--------8--------1--------8----6----1----|
D|--9--------4--------9--------2--------9----7----2----|
A|--9--------4--------9--------2--------9----7----2----|
E|--7--------2--------7--------0--------7----5----0----|



AT THE END OF THE SECOND CHORUS, PLAY THIS:

E|--2---|
B|--2---|
G|--3---|
D|--4---|
A|--4---|
E|--2---|




INTRO
VERSE
CHORUS
INTRO
VERSE
CHORUS x2
CHORUS (INSTRUMENTAL)
CHORUS

Remember Everything Acoustic Tabs by Five Finger Death Punch

 Author/Artist: Five Finger Death Punch
Title: Remember Everything
       Live Acoustic
: Robert Brown
Email: bahburt

Tuning: (from low to high)  A E A D F# B

This is the acoustic version they play live.
Transcribed to the best of my abilities. Hope you enjoy it!

    Intro

-|--------------------|---------------------|-----------------|--------------|
-|--------------------|---------------------|-----------------|--------------|
-|--------------------|---------------------|-----------------|--------------|
-|--------11-9--------|--------11-9---------|-----4-7-6-----4-|--------------|
-|---9-12------11---9-|---9-12------11-12-9-|---4-------7-----|--------------|
-|-0--------------0---|-0-------------------|-4-----------4---|--------------|


-|-------------------|--------------------|---------------------|------------|
-|-------------------|--------------------|---------------------|------------|
-|-------------------|--------------------|---------------------|------------|
-|-----4-7-6-------7-|--------11-9--------|--------11-9---------|------------|
-|---4-------7-------|---9-12------11---9-|---9-12------11-12-9-|------------|
-|-4-----------4\7---|-0--------------0---|-0-------------------|------------|


-|-------------------0------------------|------------------------------------|
-|-------------------0------------------|------------------------------------|
-|-------------------4------------------|------------------------------------|
-|-----4-7-6---4-----4------------------|------------------------------------|
-|---4-------7------------4/------------|------------------------------------|
-|-4-------------4--------4/------------|------------------------------------|
    Verse

-|--------------------|---------------------|-----------------|--------------|
-|--------------------|---------------------|-----------------|--------------|
-|--------------------|---------------------|-----------------|--------------|
-|--------11-9--------|--------11-9---------|-----4-7-6-----4-|--------------|
-|---9-12------11---9-|---9-12------11-12-9-|---4-------7-----|--------------|
-|-0--------------0---|-0-------------------|-4-----------4---|--------------|


-|-------------------|--------------------|---------------------|------------|
-|-------------------|--------------------|---------------------|------------|
-|-------------------|--------------------|---------------------|------------|
-|-----4-7-6-------7-|--------11-9--------|--------11-9---------|------------|
-|---4-------7-------|---9-12------11---9-|---9-12------11-12-9-|------------|
-|-4-----------4\7---|-0--------------0---|-0-------------------|------------|


-|-----------------|----------------------|--------------------|-------------|
-|-----------------|----------------------|--------------------|-------------|
-|-----------------|----------------------|--------------------|-------------|
-|-----4-7-6-----4-|-------7-11-9---------|-12---11---9--------|-------------|
-|---4-------7-----|-----7--------11-12-9-|---------------12---|-------------|
-|-4-----------4---|-4\7------------------|----9----9---9----9-|-------------|


-|-----------------|-----------------|-----------------|---------------------|
-|-----------------|-------0---------|-------5-------9-|---------------------|
-|-6---6---4-------|-----2---2---2---|-----6-------9---|---------------------|
-|-------------7---|---2-----------2-|---6-------9-----|---------------------|
-|-----------------|-0---------0-----|-4-------7-------|---------------------|
-|---4---4---4---4-|-----------------|-----------------|---------------------|
    Chorus

-|---------------|---------------|-------------------------------|-----------|
-|-------0-------|---------------|-------3-------------7-------9-|-----------|
-|-----2---2-----|-------1-------|-----4---4---------7-------9---|-----------|
-|---2---------2-|-----2---2---

My Lady Death Tabs by Cancerslug

 Song:Lady Death

Artist:
Genre:Post-Punk
Year:2004
Tuning:Drop C (C,G,C,F,A,D)

Verse 1 Pt.1 x2
D-------------------------|
A-------------------------|
F-6~~~--3~~~--------------|
C-6~~~--3~~~--6~~~--3~~~--|
G-4~~~--1~~~--6~~~--3~~~--|
C-------------6~~~--3~~~--|

Verse 1 Pt.2 x1
D----------------------------------|
A----------------------------------|
F----------------8~~~--------------|
C----------4~~~--8~~~--6~~~--6-----|
G-1/6-4-3--4~~~--6~~~--6~~~--6x16--|
C----------4~~~--------6~~~--6-----|
                             .

Verse 1 Pt.3 x1
D-----------------------------------------|
A(   x2  )--------------------------------|
F-66-6666--(   x2  )-(   x2  )-(   x2  )--|
C-66-6666---88-8888---66-6666---33-3333---|
G-44-4444---88-8888---66-6666---33-3333---|
C-----------88-8888---66-6666---33-3333---|

Verse 1 Pt.4 x1
D-----------------------------------------|
A(   x2  )--------------------------------|
F-66-6666--(   x2  )-(   x2  )------------|
C-66-6666---88-8888---66-6666---33-3333---|
G-44-4444---88-8888---66-6666---33-3333---|
C-----------88-8888---66-6666---33-3333---|

D-----------|
A-----------|
F-----------|
C-----------|
G-66-44-33--|
C-----------|

Verse 1 Pt.5 x1
D-------------------------------------------------|
A----------(  x2  )-------------------------------|
F(   x2  )--88-888--(   x2  )---------------------|
C-44-4444---88-888---66-6666---33-3333------------|
G-44-4444---66-666---66-6666---33-3333--88-66-44--|
C-44-4444------------66-6666---33-3333------------|

Outro x1
D---------------------------------------|
A----------(   x2  )--------------------|
F(   x2  )--88-8888------------6-5------|
C-44-4444---88-8888---66-6666--6-5-8-6--|
G-44-4444---66-6666---66-6666--4-3-8-6--|
C-44-4444-------------66-6666------8-6--|

Song Order:
*Verse 1 Pt.1
*Verse 1 Pt.2
*Verse 1 Pt.3
*Verse 1 Pt.4
*Verse 1 Pt.5
*Outro x1

Key:
/=Slide Up
~=Let Ring

*Here Is A Link If You Wanna Play Along:


*Don't Forget To Rate And Comment If You
Liked The Tab, And Comment Any Corrections,
I Welcome Corrections.

The Agony Of Regret Cold Tabs by Five Finger Death Punch

 The Agony of Regret
Five Finger Death Punch

Tuning: Standard B

This a beautiful and strong piece of guitar. So make sure your guitar is tuned in 
standerd B (B E A D F# B). Listen to the song for the rythm.

For the most beautiful sound I suggest to pick everything but the hammer-on part. You 
can play that part like bass players.

NOTE: When tuning your guitar this low it will easily get out of tune. If you play for a 
long time it will stay in tune. So the first 10 minutes you'll need to re-tune pretty much.


B|-----------------------------------|-----------------------------------|
F#---------------0-------------------|---------------0-------------------|
D|-----------2----------2-------2----|-----------2----------2------2-----|
A|-------5------------------3--------|-------5------------------3--------|
E|-----------------------------------|-----------------------------------|
B|---0-------------------------------|---0-------------------------------|

B|---------------------------------|----------------0--------------------------------------|
F#---------------0-----------------|------------1-------1----1-----------------------------|
D|-----------2----------2----------|--------4--------------4-------------------------------|
A|-------5------------------3------|-------------------------------------------------------|
E|---------------------------------|---0------------------------------------5--------------|
B|---3-----------------------------|---------------------------------0h3h5-----5--3--------|

Play twice

B|-------------------------------------|----------------------------------|
F#-----------0----------------0--------|----------0-------------0---------|
D|-------------------------------------|----------------------------------|
A|-------5------5---------5-------5----|------7-------7------7------7-----|
E|----3--------------3-----------------|---5-------------5-------------5--|
B|-------------------------------------|----------------------------------|

B|-------------------------------------|----------------------------------|
F#-----------0----------------0--------|----------0-----------------------|
D|-------------------------------------|----------------------------------|
A|-------5------5---------5-------5----|------7-------7------9------9-----|
E|----3--------------3-----------------|---5-------------/7------7--------|
B|-------------------------------------|----------------------------------|

B|-------------------------------------|----------------------------------|
F#-----------0----------------0--------|----------0-------------0---------|
D|-------------------------------------|----------------------------------|
A|-------5------5---------5-------5----|------7-------7------7------7-----|
E|----3--------------3-----------------|---5-------------5-------------5--|
B|-------------------------------------|----------------------------------|

B|------------------------------------------|
F#------------------------------------------|
D|------------------------------------------|
A|------------------------------------------|
E|-----7--7-----7--7------7-7------7--7-----|
B|--5--------5---------5--------5-----------|

Enjoy!