Tag: demarco

One Another Chords by Mac DeMarco

[Intro] 
F     Bb  C  (x3)
(Mac throws in F7 and F6 also for the four beats of the F chord)

[Verse 1]
    F        Bb          C             F
Hey kid,     everybody's prone to some mistakes
  Bb                    C                     F
If you'd always kept it straight, you'd never learn
Bb                    C                 F     Bb  C
You'd run the risk of all the risks you take
     F              Bb               C              F
Don't feel     like all the time you put in went to waste
Bb                     C                 F
The way your heart was beating all those days
Bb              C             F     Bb  C
And suddenly it beats another pace

[Chorus]
     Gm           C7    Bmaj7       Ebmaj7
It's not like you never tried to forget her
    Gm             C7         Eb7     F
But these days are better without one another

[Instrumental] (x2)
F    Bb  C 

[Verse 2]
    F     Bb              C               F
Hey man,    so now you've got it off your chest
Bb                C                F
   Your heart can finally get some rest
Bb               C                  F    Bb  C
 Same heart that started this whole mess 
      F      Bb         C                   F
And although   a broken heart needs time to mend
Bb             C           F
  Yours wasn't ever really broken, was it?
Bb           C               F      Bb  C
   In losing love you gain a friend

[Chorus]
     Gm           C7    Bmaj7       Ebmaj7
It's not like you never tried to forget her
    Gm             C7         Eb7     F
But these days are better without one another

[Outro]
F     Bb     C        F
          Without one another
Bb     C        F
    Without one another
Bb     C        F
    Without one another
Bb     C     F

Watching Him Fade Away Chords by Mac DeMarco

Tuning 1st fret
Capo D A D G B E
Drop D tuning: DADGBE
Song is in key of Eflat, so capo on first fret to be in same key.
(tabs for chords written below written relative to no capo)

D : 0X423X
G/D (Gsus2/D): 0X523X
Em : 2XX030
B7 : X2424X
Bm7: X2423X
A7 : X02020
Gmaj7: 5X777X
F#m7: 4X765X

Each chord is played for 2 beats

[Intro]
D     G/D x2

[Verse 1]
D                  G/D                D     G/D
   Haven't got the guts to call him up
D                 G/D            D           G/D
   Walk around as if you never cared in the first place
D                   G/D                      D    G/D
   But if you never call you'll end up stuck
D                  G/D                  D              G/D
   Without another chance to tell him off right to his face

[Chorus]
Em           B7        Bm7          A7
   And even though you barely know each other
   D     G/D   Gmaj7         F#m7       D    G/D  Gmaj7         F#m7
It still hurts watching him fade away,            watching him fade away
D    G/D   Gmaj7         F#m7    D    G/D    Gmaj7         F#m7     D    G/D  D    G/D
           Watching him fade away,           watching him fade away.

[Verse 2]
D                   G/D                  D     G/D
   I know you never meant to put him down
D                  G/D     D         G/D
   And even if you did,   he sure deserved it
D                        G/D                D     G/D
   The thought of him no longer being around
D                        G/D       D        G/D
   Well sure it would be sad but not really different

[Chorus]
Em           B7        Bm7          A7
   And even though you barely know each other
   D     G/D   Gmaj7         F#m7      D    G/D  Gmaj7         F#m7
It still hurts watching him fade away,           watching him fade away
D    G/D   Gmaj7         F#m7     D    G/D   Gmaj7         F#m7      D   
           Watching him fade away,           watching him fade away.

For The First Time Chords by Mac DeMarco

Artist:Mac DeMarco
Song  :For the First Time 

Chords arranged for guitar from synths. The suggested chord shapes below sound good on guitar. 
Also the Eb6 can also be played as a Ebmaj7. 

e|---------|---------|----3----|---(6)---|----3----|----3----|
B|----9----|---(4)---|----5----|----6----|----3----|----5----|
G|----8----|----5----|----3----|----8----|----3----|----3----|
D|----10---|----5----|----5----|----8----|----3----|----5----|
A|----8----|----6----|----x----|----x----|----5----|----3----|
E|---------|---------|----3----|----6----|----3----|---------|
     Fm7       Eb6       C7/G     Bbsus4      Gm7       C7        


[Verse 1]
Fm7             
While she's been away
                            Eb6   
Living day-to-day has been tough
Fm7
I found her at my side
                            Eb6   
Simply being alive's been rough
             Fm7
You know she won't be gone forever
                                Eb6    
There are many times I find it feels that way
             Fm7
And I'm not trying to forget her
                                  C7/G
Just understand how I'll be feeling on that day

[Chorus]
                      Fm7           Bbsus4     Gm7   C7
It's just like seeing her for the first time again
                      Fm7           Bbsus4     Eb6
It's just like seeing her for the first time again

[Verse 2]
Fm7
The time she's not around
                               Eb6   
Somewhere out-of-town has been hard
     Fm7                                                  Eb6   
But somehow this old heart found time to work it out this far
       Fm7                        
No, I know she's coming home soon
                                  Eb6   
There are times I find it hard to feel that way
          Fm7                       
It's not inside me to forget her
                                  C7/G
Just understand how I'll be feeling on that day

[Chorus]
                      Fm7           Bbsus4     Gm7   C7
It's just like seeing her for the first time again
                      Fm7           Bbsus4     Eb6   C7
It's just like seeing her for the first time again
                      Fm7           Bbsus4     Gm7   C7
It's just like seeing her for the first time again
                      Fm7           Bbsus4     Eb6
It's just like seeing her for the first time again


Tabbed by Trystan H

The Stars Keep On Calling My Name solo Tabs – Mac Demarco

 This is the solo at the end of the album version song:

From 1:45 to the end (2:23)

Note: the solo in the live version is 100% different, so make sure you listen the album/studio version.

Tuning: Standard (EADGBe)

e -----------------------
B --/15-15-15-15----15---
G -----------------------
D -----------------------
A -----------------------
E -----------------------

e ------------------15---
B --/15-15-15-15---------
G -----------------------
D -----------------------
A -----------------------
E -----------------------

e ------------------------------------
B --/15-15-15-15p12-------------------
G ------------------14p12-14-14p12-14-
D ------------------------------------
A ------------------------------------
E ------------------------------------

e ------------------17---
B --/15-15-15-15---------
G -----------------------
D -----------------------
A -----------------------
E -----------------------

e ------------------15---
B --/15-15-15-15---------
G -----------------------
D -----------------------
A -----------------------
E -----------------------

e ----------------------------
B --/15-15-15-15----15p12-----
G ------------------------14--
D ----------------------------
A ----------------------------
E ----------------------------

e -----------------------
B --/15-15-15-15----15---
G -----------------------
D -----------------------
A -----------------------
E -----------------------

e ------------------15---
B --/15-15-15-15---------
G -----------------------
D -----------------------
A -----------------------
E -----------------------

e ----------------19-17b19b17-15-15-17---
B --/15-15-15-15-------------------------
G ---------------------------------------
D ---------------------------------------
A ---------------------------------------
E ---------------------------------------

                                  (wait)
e ---------------------------------------------------------------------------------------------------
B --/15-15-15-15----15p12-15-15-------------12-------------------------------------------------------
G ----------------------------------------------14-14-----14b16b14-14-12-14---14b16b14-14-12-12------
D ---------------------------------------------------------------------------------------------------
A ---------------------------------------------------------------------------------------------------
E ---------------------------------------------------------------------------------------------------

e ----------------------
B ----------------------
G --14b16b14-14-12-12---
D ----------------------
A ----------------------
E ----------------------


Notation:
"/15" means slide from anywhere.
"14b16b14" means bend "14" until it sounds like "16" and from there bend it back so it sounds again like "14"

Go Easy chords – Mac Demarco

 Mac Demarco
Go Easy
Salad Days (2014)
Captured Tracks

Here is my version of Go Easy, I think you can play along with the album if you tune your guitar to 452Hz.
I've posted my version below aswell if anyone wants to listen to that for the way i've played it. I've also
posted the intro tab below the chords, however this is not relevant to the capo!!



Chords: (Relative to capo)

G6   3-2-0-0-0-0
F#m7 2-4-2-2-2-2
A*   X-0-4-0-2-0
Em   0-7-9-0-8-0
 Bm    X-2-4-0-3-0

Capo 2

Intro: G6, F#m7, A* X4

Verse:
 G6 F#m7       A*
Pack it up and leave it, leave it all behind you
 G6 F#m7            A*
Start it fresh in someone else’s town
     G6 F#m7      A*
And though we may be leaving, I’ll be right beside you
    G6 F#m7            A*
To pick you up until you come around

Chorus:
    Em Bm       A*
So please, go easy with my baby
 Em Bm       A*
Please, go easy
    Em Bm       A*
Please, go easy with my baby
 Em Bm       A*
Please, go easy

Break: G6, F#m7, A* X4

Verse:
 G6 F#m7        A*
Down here can be tough, without your friends beside you
     G6 F#m7              A*
You built it up, just to knock it down
    G6 F#m7    A*
So when you’re feeling rough, I’ll be right behind you
    G6 F#m7            A*
To pick you up until you come around

Chorus:
    Em Bm       A*
So please, go easy with my baby
 Em Bm       A*
Please, go easy
    Em Bm       A*
Please, go easy with my baby
 Em Bm       A*
Please, go easy     X2

Outro: G6, F#m7, A* X4
-------------------------------------------------------------------------------------------------------------
Intro/Break/Outro Lead riff:

e|----------------------------------------------------------|
B|------12--------------------------------------------------|
G|-11/13--13-11-13-11-13/14/13-11---------------------------|
D|-------------------------------13-14-13-13/11-13/11-------|
A|---------------------------------------------------11-14--|
E|----------------------------------------------------------|

Annie Tabs – Mac Demarco

 -------------------------------------------------------------------------------
                             Annie - Mac Demarco
-------------------------------------------------------------------------------
: originally by weino523, breakdown by DrWangerBanger


Tuning: Standard, capo on 4

    E  G  A  F
e|-----3--5--1--------|
B|-----3--5--1--------|
G|--1--4--6--2--------|
D|--2--5--7--3--------|
A|--2--5--7--3--------|
E|-----3--5--1--------|

"I'm going down" breakdown:

Here are the 4 basic chords:

e|-----------0-----|
B|--5--0--0--0-----|
G|--5--3--2--1-----|
D|--4--2--1--2-----|
A|-----------2-----|
E|--5--3--2--0-----|

Intro: A G E 4x

A   G
Annie 
E          A         G
knows when its me
E          A       G     E         A       G   E
Knows how Im feeling and gives me her healing
   A   G  E        A      G
Oh Annie, sit down beside me
E       A         G    F                E                        
Let me confide in you, you know when Im blue        
F                E           F          E
You know when Im lonely and, honey, Im lonely

e|-------------------------------------------------------0--2--2---|
B|-----------5-------------------------------0--0-----0--------0---|
G|--------5-----------0--3--4--4--0-------2-----1--1-----------1---|
D|-----4-----------2-------------------1--------2--------------2---|
A|----------------------------------------------2--------------2---|
E|--5-----------3-------------------2-----------0--------------0---|

Im going down, going down, going down, going down 

A   G  E              A   G
Annie, daddy wont let me
E           A     G       E          A        G   E
Daddy wont let me go and thats why I feel so low
   A   G   E       A      G
Oh Annie, sit down beside me
E       A         G    F                E                        
Let me confide in you, you know when Im blue        
F                E           F          E
You know when Im lonely and, honey, Im lonely

e|-------------------------------------------------------0--2--2---|
B|-----------5-------------------------------0--0-----0--------0---|
G|--------5-----------0--3--4--4--0-------2-----1--1-----------1---|
D|-----4-----------2-------------------1--------2--------------2---|
A|----------------------------------------------2--------------2---|
E|--5-----------3-------------------2-----------0--------------0---|

Im going down, going down, going down, going down

************************************

| /   slide up
| \   slide down
| h   hammer-on
| p   pull-off
| ~   vibrato
| +   harmonic
| x   Mute note
| b   Bend
| pb  Pre-bend
| br  Bend release
| pbr Pre-bend release
| brb Bend release bend

************************************

Ode To Viceroy chords – Mac Demarco

 Mac Demarco - Ode To Viceroy

Please note that this isn't mean't to be exactly the same as the original song,
It's how I play it on acoustic guitar. It doesn't fit the melody, it does fit the lyrics.
Capo 2 is the best way to go if you want it to sound like the original. I prefer Capo 5.
Just place the capo where ever you want it to be and enjoy!


Chords are:

 Cmaj7    : 032000
 Cadd9    : 032030
 C        : 032010
 G        : 320000
 C *      : 335553
 A        : 002220
 Em       : 022000




Intro:

 CMaj7 - Cadd9 - C - G  X4




 CMaj7 - Cadd9 C G 
Viceroy,
              CMaj7 - Cadd9 C G 
early in the morning
                        CMaj7 - Cadd9 C G 
just tryin' to let the sun in,
                CMaj7 - Cadd9 C G 
and open up my eyes




 CMaj7 - Cadd9 C G 
Viceroy,
                 CMaj7 - Cadd9 C G 
as it's gettin' later,
                 CMaj7 - Cadd9 C G 
headin' for the corner,
                 CMaj7 - Cadd9 C G 
already runnin' dry




Chorus:

     C *    A C *              A C *     A 
And oooohooh don't let me see you cryin'
        C *     A C *             A C *     A 
'cause ooooh honey I smoke ya till I'm dyin'




 CMaj7 - Cadd9 C G 
Viceroy,
                     CMaj7 - Cadd9 C G 
don't take me for a fool now,
                   CMaj7 - Cadd9 C G 
I'm only tryin to calm down,
                        CMaj7 - Cadd9 C G 
just tryin' to keep it cool




 CMaj7 - Cadd9 C G 
Viceroy,
                 CMaj7 - Cadd9 C G 
as it's gettin' later,
                 CMaj7 - Cadd9 C G 
headin' for the corner,
                   CMaj7 - Cadd9 C G 
I'm leavin' it to you




Chorus:

     C *    A C *              A C *     A 
And oooohooh don't let me see you cryin'
        C *     A C *             A C *     A 
'cause ooooh honey I smoke ya till I'm dyin'




Outro:

 CMaj7 - Cadd9 C G  

Repeat and end with an Em

Passing Out Pieces Tabs by Mac Demarco

 Mac DeMarco - Passing Out Pieces
"Salad Days" (Captured Tracks 2014).

 Isaac Murguia, January 2014.
Originally uploaded to Ultimate-Guitar.com
Contact: www.youtube.com/user/Goadiroth

INTRO:
  Keys 1 (arranged for guitar)
e|---------------------------|--------------------------|
B|---------------------------|--------------------------|
G|-----5----7----2-----------|----5----7----2-----------|
D|-------7----5----2---3-2-0-|------7----5----2-----0---|
A|-3-------------------------|-3----------------------3-|
E|---------------------------|--------------------------|

  Keys 2 (arranged for guitar)
e|-0000-0000-1111-1111-1111-1111-0000-0000-|      |-0000-0000-|
B|-1111-1111-3333-3333-3333-3333-1111-1111-|      |-1111-1111-|
G|-0000-0000-2222-2222-0000-0000-0000-0000-|      |-0000-0000-|
D|-2222-2222-0000-0000-0000-0000-2222-2222-|      |-2222-2222-|
A|-3333-3333-----------2222-2222-2222-2222-|      |-3333-3333-|
E|---------------------3333-3333-0000-0000-| [x2] |-----------|

VERSE: repeat INTRO

CHORUS:
e|-5-----5-------5-----5---|-------10------10--------10------10-|
B|---3-----3-------3-------|-----8-------8---------8-------8----|
G|-----5-----5-------5---5-|-/10------10--------10------10------|
D|-------------------------|------------------------------------|
A|-------------------------|------------------------------------|
E|-------------------------|------------------------------------|

e|-5-----5-------5-----5---|-------10------10-----------12-------12-|-------12-------12-|
B|---3-----3-------3-------|-----8-------8-----------10-------10----|----10-------10----|
G|-----5-----5-------5---5-|-/10------10-------10/12-------12-------|-12-------12-------|
D|-------------------------|----------------------------------------|-------------------|
A|-------------------------|----------------------------------------|-------------------|
E|-------------------------|----------------------------------------|-------------------|

Repeat INTRO
Repeat CHORUS ..."yeah"

OUTRO: [x3]
  Keys 1 (for guitar)
e|---------------------------|
B|---------------------------|
G|-----5----7----2-----------|
D|-------7----5----2---3-2-0-|
A|-3-------------------------|
E|---------------------------|

  Keys 2 (for guitar)
e|-0000-0000-1111-1111-1111-1111-0000-0000-|
B|-1111-1111-3333-3333-3333-3333-1111-1111-|
G|-0000-0000-2222-2222-0000-0000-0000-0000-|
D|-2222-2222-0000-0000-0000-0000-2222-2222-|
A|-3333-3333-----------2222-2222-2222-2222-|
E|---------------------3333-3333-0000-0000-|

End. Please rate! :)

Cooking Up Something Good chords – Mac Demarco

 ( I'd recommend playing this with capo on 4 so just transpose it!)

Intro:  Ab ,  Bbm ,  Db ,  Ab ,  Db ,  Bbm ,  Db ,  Ab ,  Db ,  Bbm Db Ab Db Bb 
mommy's in the kitchen,     cooking up something good
 Db Ab Db Bb 
and daddy's on the sofa,       pride of the neighborhood
 Db Abm Ab Db Bbm 
my brother's in the ballet,               it seems he's got it set
 Db Ab Db Bbm 
and I'll be up at midnight,        with my cigarette

 Ab E A Bbm 
ooh when life moves this slowly 
   Ab A Bbm 
ooh just try and let it go
 Ab E A Bbm 
ooh when life moves this slowly
 Ab A B 
ooh just try and let it go

 Db Ab Db Bb 
daddy's in the basement,       cooking up something fine
 Db Ab Db Bb 
while rick's out on the pavement,       flipping it for dimes
 Db Abm Ab Db Bbm 
if there's anything redeeming,   I haven't seen it yet
 Db Ab Db Bb 
and I'm still up at midnight, chewing nicorette

 Ab E A Bbm 
ooh when life moves this slowly
   Ab A Bbm 
ooh just try and let it go
 Ab E A Bbm 
ooh when life moves this slowly
 Ab A B 
ooh just try and let it go

Rocknroll Nightclub Tabs by Mac Demarco

 STANDART TUNING.
PETER SAGAR GUITAR.


INTRO
E|---------------------|---------------------|---------------------|---------------------|
B|---------------------|---------------------|-6-8-----------------|---------------------|
G|-5-7-----------------|---------------------|---------------------|---------------------|x2
D|---------------------|-7-10----------------|---------------------|---------------------|
A|---------------------|---------------------|---------------------|---------------------|
E|---------------------|---------------------|---------------------|---------------------|

VERSE
E|---------------------------------------------------------------------------|
B|---6---6---6---6---6---6---6---6---6---------------------------------------|
G|-8---8---8---8---8---8---8---8---8---8-7-5-7---5---------------------------|x4
D|---------------------------------------------7-----------------------------|
A|---------------------------------------------------------------------------|
E|---------------------------------------------------------------------------|

CHORUS
E|---------------------------------------------------------------------------|
B|---------------------------------------------------------------8-10--------|
G|------5-5/7\5---5-5--7/10-10---7/10------5-5/7\5---5-5--7h6/10-------------|x2
D|-5/7----------7---------------------5/7----------7-------------------------|
A|---------------------------------------------------------------------------|
E|---------------------------------------------------------------------------|

SOLO
E|-----------------------------5---5---5----8----8----8--------------------------|
B|---6---6---6---8---8---8---6---6---6---10---10---10------6---6---6---8---8---8-|
G|-7---7---7---7---7---7---------------------------------7---7---7---7---7---7---|
D|-------------------------------------------------------------------------------|
A|-------------------------------------------------------------------------------|
E|-------------------------------------------------------------------------------|

E|-----------------------------------------------------------------------------------------------|
B|-----------------------------6---6---6---8---8---8---------------------------------------------|
G|---5---5---5---7---7---7---7---7---7---7---7---7---7-7-5-5-------------------------------------|
D|-7---7---7---7---7---7-------------------------------------8-8-7-7-5-5-----5-5-----------------|
A|-----------------------------------------------------------------------8-8------8-8-8-8-8-8-8-8|
E|-----------------------------------------------------------------------------------------------|