Tag: Desire

Paradise chords – Blue Rodeo

 Blue Rodeo - Paradise           Key: F

Intro:   F C Am C G C C G C          
For all the wounds that never heal,  
 F C 
For all the times you were a rebel
 F C Am       
For this one night,  Let's not ask the price
 C G C 
You have to pay,  To stay in paradise

So throw another log on the fire                         C G C 
Your sympathy my desire                                  F C 
We'll watch the sparks fly,   High into the sky          F C Am 
We'll see the lights of paradise                         C G C F                
We'll watch the sparks fly
 C Am 
High into the sky
 C G C 
We'll see the lights of paradise

 C G C F C F C Am F C G C 

I was born to wander,                                    C G C 
And every dollar I made I squandered                     F C 
But the greatest misery, Is know I'll have to leave      F C Am 
Leave these lights of paradise                           C G C C G C 
Ah sweet oblivion
 F C 
To sing and dance with the innocent
 F C Am           
When I'm on my deathbed,   Taking my last breath
 C G F C 
Will I have paid the price, To stay in paradise
 F C Am 
When I'm on my deathbed  Taking my last breath
 C G F C 
Will I have paid the price  To stay in paradise 

 F C Am C G F C

Spirit Desire Acoustic chords – Tigers Jaw

 I couldn't find these chords anywhere, so I decided to post them for everyone else.  Enjoy
-Ryan Emmert


So basically it is two variations of an open F chord which are...
      
      RHYTHM(listen to the song to be more accurate)

      x  x x x  x  x x x x      x  x x x  x  x x x 

e|--------------------------------------------------|
B|----2-----------------------0---------------------|
G|----2-----------------------2---------------------|
D|----0-----------------------0---------------------|
A|----0-----------------------0---------------------|
E|----2-----------------------2---------------------|


...followed by an A & A5 chord which are

      x  x x x  x  x x x      x  x x x  x  x x x 

e|--------------------------------------------------|
B|----2-----------------------0---------------------|
G|----2-----------------------2---------------------|
D|----2-----------------------2---------------------|
A|----0-----------------------0---------------------|
E|--------------------------------------------------|


Lyrics


Waiting for the sun, but I know that it'll come.

I feel reborn when you touch my arm.

Whole new view, feel better when I talk to you. 

I get scared with what I wear.

Even when you yell, I still love your belly,

It's true, it's true. 

Riding it through the night, straight through.


It still feels new when I talk to you.

I feel reborn when the sun gets warm.

It's hard but I feel better when I'm not inside.

I get scared you'll leave me soon, 

Even though we call each other every afternoon,

It's true, it's true.

It took a little time, but I, well I know you.


I'm not bored at all, you can call me when you want to call.

Oh, I'm not bored at all, you can call me when you wanna call.


I used to want to show you every single line,

Now it's hard for me to show you anything I write.

Know that I get nervous when we're not alone, 

I wait for you for hours when you're coming home.

When we started talking I got so excited,

I swear I tried to go out every single night.

Know that you will always be the one who's my... 


Spirit desire, spend my time,

Tell me that you're always gonna be in my life.


Oh, I'm not bored at all, you can call me when you wanna call.

Crowswallow Tabs by Laura Gibson

 , hope I got it right.
It's a beautiful song and not to hard. Check it out.
Chords are C  G6 Am
        E  0  0  0
        B  1  0  1
        G  0  0  2
        D  2  0  2
        A  3  2  0
        E     3

Standard tuning
Capo on 7

Intro:
   C             G6
 e-----------------------------|
 B-----------------------------|
 G---0-0----0-0----0-0----0-0--|
 D--2-2-2--2-2-2--0-0-0--0-0-0-| X2
 A-3------3--------------------|
 E---------------3------3------|
C                          G6
My mind may drift from the walls of my skin
    C                      G6
But I will not wander too far
C                               G6
For those who are pulled by the ivory sun
          C                  G6
Know that home is a labor of fire

    Am                G6
And I may have nursed their honey-bright wounds
    C             G6         Am
And cradled their rhythms to rest
            C       G6
But I am no dreamer
            C       G6    Am
I could not keep my hands clean

   C                       G6
So I will not grieve those bent to receive
C                         G6
Seeds that could never be sown
    C                     G6
And I will not lust those courtesies past
          C                        G6
They have flickered but not chosen me

    Am                          G6
And when they march by in their motherly smiles
C       G6             Am
Swaying their motherly hips
         C      G6
I cannot follow
         C    G6    Am
I cannot keep their pace

   C             G6            Am              G6
 e-------------------------------------------------------------|
 B-----1------1------0------0------1-1------1-------0-------0--|
 G---0------0------0------0------2--------2-------0-------0----|
 D--2-2----2-2----0-0----0-0----2-2------2-2-----0-0-----0-0---|
 A-3------3--------------------0--------0----------------------|
 E---------------3------3-----------------------3------3-------|

   C             G6            Am              G6
 e-------------------------------------------------------------|
 B-----1------1------0------0------1--------1-------0-------0--|
 G---0------0------0------0------2--------2-------0-------0----|
 D--2-2-2--2-2-2--0-0-0--0-0-0--2-2-2----2-2-2---0-0-0---0-0-0-|
 A-3------3--------------------0--------0----------------------|
 E---------------3------3-----------------------3------3-------|

C                 G6
Time has a way of stealing our breath
    C                          G6
And milking the light from our pores
    C                    G6
And many will fill their oak barrel wombs
     C                   G6
With patience instead of desire

Am                 G6
One cannot curse a crow for her course
   C                G6           Am
Or choose where her feathers may fall
        C       G6
I am no swallow
        C        G6
I am no spring bird

  C             G6              C              G6           C
 e------------------------------------------------------------|
 B------------------------------------------------------------|
 G---0-0----0-0----0-0----0-0-----0-0----0-0----0-0----0-0----|
 D--2-2-2--2-2-2--0-0-0--0-0-0---2-2-2--2-2-2--0-0-0--0-0-0---|
 A-3------3---------------------3------3--------------------3-|let it ring
 E---------------3------3---------------------3------3--------|

Desire 126 Tabs by Hollerado

 -------------------------------------------------------------------------------
                             DESIRE 126 - Hollerado
-------------------------------------------------------------------------------
: Matthew Ridderikhoff
 hiddenrevs

Tuning: Standard



  INTRO

e|---------------------------------------------------------------------------|
B|---------------------------------------------------------------------------|
G|---7--7--7--7--7--7--7--7--7--7--7--7--7--7---4---7------------------------|
D|---7--7--7--7--7--7--7--7--7--7--7--7--7--7---4---7------------------------|
A|---5--5--5--5--5--5--5--5--5--5--5--5--5--5---2---5------------------------|
E|---------------------------------------------------------------------------|



  VERSE

  Guitar 1
  x3 (palm-muted)
e|---------------------------------------------------------------------------|
B|---------------------------------------------------------------------------|
G|---7---7-------------------------------------------------------------------|
D|---7---7---9---7---7---9---5---5---9---7---7---9---------------------------|
A|---5---5---9---7---7---9---5---5---9---7---7---9---------------------------|
E|-----------7---5---5---7---3---3---7---5---5---7---------------------------|

  x1 (palm-muted)
e|---------------------------------------------------------------------------|
B|---------------------------------------------------------------------------|
G|---7---7-------------------------------------------------------------------|
D|---7---7---9---7---7---9---5---5---9---7---7---7---------------------------|
A|---5---5---9---7---7---9---5---5---9---7---7---7---------------------------|
E|-----------7---5---5---7---3---3---7---5---5---5---------------------------|

 
 
 Guitar 2
  x2
e|---------------------------------------------------------------------------|
B|---------------------------------------------------------------------------|
G|---------------------------------------------------------------------------|
D|---7---9---7------7---9---7---0--------------------------------------------|
A|---------------------------------------------------------------------------|
E|---------------------------------------------------------------------------|



  PRE-CHORUS

e|---------------------------------------------------------------------------|
B|-------7--------------7----------------------------------------------------|
G|---6---7---4------4---7---6------------------------------------------------|
D|---7---7---5------5---7---7------------------------------------------------|
A|---7---5---5------5---5---7------------------------------------------------|
E|---5-------3------3-------5------------------------------------------------|



  CHORUS
 
  Guitar 1
  x2
e|---------------------------------------------------------------------------|
B|---------------------------------------------------------------------------|
G|---7--7-7------------------------------------------------------------------|
D|---7--7-7---9---7--7-7---9---5--5-5---5-5---5-5--7-------------------------|
A|---5--5-5---9---7--7-7---9---5--5-5---5-5---5-5--7-------------------------|
E|------------7---5--5-5---7---3--3-3---3-3---3-3--5-------------------------|
 
  Guitar 2
  x2
e|---------------------------------------------------------------------------|
B|---------------------------------------------------------------------------|
G|---------------------------------------------------------------------------|
D|---7---9---7------7---9---7---0--------------------------------------------|
A|---------------------------------------------------------------------------|
E|---------------------------------------------------------------------------|

 
  SOLO

  Guitar 1
  x4
e|--------------|
B|--------------|
G|---7-7-7-7----|
D|---7-7-7-7----|
A|---5-5-5-5----|
E|-------------

A Direst Desire – Heart Reason Tabs

 ----------------------------------------------------------------------
HEART & REASON - a Direst Desire
----------------------------------------------------------------------
: Michael Beatson
Email: michaeljbeatson

Tuning: EADGBe 
Capo: 1st Fret

####################################################################
ALL TABS ARE AS SEEN ON NECK DOTS, NOT IN RELATION TO CAPO POSITION.
####################################################################


Intro: Guitar 1

e|--0--0--0--0--0--0--0--0--|
B|--0--0--0--0--0--0--0--0--|
G|-10-10-10-10-10-10-10-10--|
D|--8-10--8-10--8-10--8-10--|
A|--0--8--0--8--0--8--0--8--|
E|--0--0--0--0--0--0--0--0--|


Intro: Guitar 2

e|-----------------------------------------------------------------------|
B|------------------------------------------------------13---13-15--15---|
G|--------10h12-12br--10-12/15-14---------10h12-12br--10---10-----17--17-|
D|--10h12---------------------------10h12--------------------------------|
A|-----------------------------------------------------------------------|
E|-----------------------------------------------------------------------|

e|-----------------------------------------------------------------------|
B|-----------------------------------------------------------------------|
G|--------10h12-12br--10-12/15-14---------10h12-12br-12-10---9---10------|
D|--10h12---------------------------10h12--------------------------------|
A|-----------------------------------------------------------------------|
E|-----------------------------------------------------------------------|




Verse 1: Guitar 1: Same as Intro.


Chorus 1: Guitar 1

e|--0--0--0----0--0--0--|
B|--0--0--0----0--0--0--|
G|-10-10--5---10-10--5--|
D|--8--7--5----8--7--5--|
A|--0--8--3----0--8--3--|
E|--0--0-------0--0-----|



Verse 2: Guitar 1: Same as Intro.


Verse 2: Guitar 2

e|--0----------------------------------------------------------|
B|--0----------------------------------------------------------|
G|-10---10vv--9--7---10vv--9--12-15---1515\14-14\12-12/14-14----1515\14-14/10-10
D|--8----------------------------------------------------------|
A|--0----------------------------------------------------------|
E|--0----------------------------------------------------------|

e|-----------------------------------------------------------------------|
B|-----------------------------------------------------------------------|
G|--1515\14-14\12-12/14-14----1515\14-14/10-10------1010-----10--101210--|
D|---------------------------------------------10h12----10h12--12--------|
A|-----------------------------------------------------------------------|
E|-----------------------------------------------------------------------|

Pre-Chorus: Guitar 1: Same as Intro.


Pre-Chorus: Guitar 2: 

e|-------------------------------------------------------------|
B|------1313-----13--13/15-------------------------------------|
G|--9h10-----9h10--10-----14-------1010------10--101210--------| x2
D|----------------------------10h12-----10h12--12--------------|
A|-------------------------------------------------------------|
E|-------------------------------------------------------------|



Chorus 2: Guitar 1: Same as 1st.


Chorus 2: Guitar 2

e|-------------------------------------------------------------|
B|--111111111111-101010101010-13\\8-88-/13\\88-8-1010-8----x2--|
G|-------------------------------------------------------------|
D|-------------------------------------------------------------|
A|-- ----------------------------------|
E|-------------------------------------------------------------|

e|-------------------------------------------------------------|
B|--11b11b11b11b-10b10b10b10b-13\\8-88-/13\\88-8-1010-8----x2--|
G|-------------------------------------------------------------|
D|-------------------------------------------------------------|
A|-----------------

A Direst Desire – His Salvation Is Sin Tabs

 -------------------------------------------------------------------------------
        HIS SALVATION IS SIN - a Direst Desire
-------------------------------------------------------------------------------
: Michael Beatson
 michaeljbeatson

Tuning: DGCFAd (Full Step Down)

Sounds a bit different to recorded track in places, this is how it's played live.


Intro: 

Guitar 1:
d|---------------------------------------------------------------------------|
A|---------------------------------------------------------------------------|
F|---------------------------------------------------------------------------|
C|---------------------------------------------------------------------------|
G|---------------------------------------------------------------------------|
D|-/12-0-0-000-10h12-00-8h10-10b10b10b----12-0-0-000-10h12-00-8h10-10b10b10b-|

d|---------------------------------------------------------------------------|
A|---------------------------------------------------------------------------|
F|---------------------------------------------------------------------------|
C|-1010101010101010101010101010101010--5555555555555555-7--777777------------|
G|-1010101010101010101010101010101010--5555555555555555-7--777777------------|
D|--8-8-8-8-8-8-8-8-8-8-8-8-8-8-8-8-8--3333333333333333-5--555555--0-2b--/---|


Guitar 2: Repeated

d|---------------101010-1212b12b1313r12---------------101010-1212b12b1313r12-|
A|-101010-121212------------------------101010-121212------------------------|
F|---------------------------------------------------------------------------|
C|---------------------------------------------------------------------------|
G|---------------------------------------------------------------------------|
D|---------------------------------------------------------------------------|


Verse 1:

Guitar 1: Palm Muted with stops in some parts

d|---------------------------------------------------------------------------|
A|---------------------------------------------------------------------------|
F|---------------------------------------------------------------------------|
C|---------------------------------------------------------------------------|
G|--222-2222-55555555-222-55555-000-55555------------------------------------|
D|--000-3333-77777777-333-77777-222-55555------------------------------------|


Pre Chorus:

Guitar 1: Same as Verse. PM'd

Guitar 2:

d|--------------------------------------------------------------5------------|
A|--787775777777777-787775777777777-787775777777777-787775777777-77----------|
F|---------------------------------------------------------------------------|
C|---------------------------------------------------------------------------|
G|---------------------------------------------------------------------------|
D|---------------------------------------------------------------------------|


Verse 2:

Guitar 1: Same as Verse. PM'd

Guitar 2: Same as Pre Chorus.


Pre Chorus 2:

Guitar 1: Same as Verse but open strumming.

Guitar 2: 

d|------------------------------5---------------7----------7--10--12---------|
A|--787775777777777-787775777777-77-787775777777-77-7877757-78--78--10-------|
F|---------------------------------------------------------------------------|
C|---------------------------------------------------------------------------|
G|---------------------------------------------------------------------------|
D|---------------------------------------------------------------------------|


Instrumental Break:

Guitar 1: x2

d|---------------------------------------------------------------------------|
A|--101010-1212121212b12b13131313r12--101010-1212121212b12b13131313r12-------|
F|---------------------------------------------------------------------------|
C|---------------------------------------------------------------------------|
G|--------

A Direst Desire – Shadow And Light Tabs

 -------------------------------------------------------------------------------
                             SHADOW AND LIGHT - a Direst Desire
-------------------------------------------------------------------------------
: Michael Beatson
 michaeljbeatson

Tuning: EADGBe


Intro: Guitar 1

e|---------------------------------------------------------------------------|
B|---------------------------------------------------------------------------|
G|---------------------------------------------------------------------------|
D|------0------0------0------9-----------------------------------------------|
A|----10-10--10-10--10-10--10-10-----------x2--------------------------------|
E|--10-----10-----10-----10--------------------------------------------------|


Verse 1: Guitar 1

e|-------------------------------------------------------------------------------|
B|-------------------------------------------------------------------------------|
G|----------------------------------------------------------------------------0--|
D|------0------0------0------9-----------0-----0-----0-----9------0-----0----0---|
A|----10-10--10-10--10-10--10-10--x2---10-10-10-10-10-10-10-10--10-10-10-10-7----|
E|--10-----10-----10-----10-----------8-----8-----8-----8------7-----7-----5-----|

Verse 1: Guitar 2

e|---------------------------------------------------------------------------|
B|----------------------------------------------------------12\\10-----------|
G|--7//12------7//12--12\11--11//14----7//12---------7//12----------12\\11---|
D|---------------------------------------------------------------------------|
A|---------------------------------------------------------------------------|
E|---------------------------------------------------------------------------|


Instrumental: Guitar 1

e|------------3---------------------------------------------------------------|
B|------------0---------------------------------------------------------------|
G|--0-0-0-0---0---------------------------------------------------------------|
D|--0-0-0-0---0--------x2-----------------------------------------------------|
A|--5-5-5-5-\-2---------------------------------------------------------------|
E|--7-7-7-7-\-3---------------------------------------------------------------|

Instrumental: Guitar 2

e|---------------------------------------------------------------------------|
B|--5*-7*----7*--5*-7*----7*--5*-7*----7*--5*-5*-5*-5*-----------------------|
G|--------5*-----------5*-----------5*------------------------x2-------------|
D|---------------------------------------------------------------------------|
A|---------------------------------------------------------------------------|
E|---------------------------------------------------------------------------|


Verse 2: Guitar 1

e|---------------3------------------------------------------------------------|
B|---------------0------------------------------------------------------------|
G|-----0---------0------------------------------------------------------------|
D|----0----0----0-----Repeated------------------------------------------------|
A|---5----5-5--2--------------------------------------------------------------|
E|--7----5----3---------------------------------------------------------------|

Verse 2: Guitar 2

e|---------------------------------------------------------------------------|
B|----------7*------5*-------------------------------------------------------|
G|--7*-5*------5*------5*--neck bend detune-----x4---------------------------|
D|---------------------------------------------------------------------------|
A|---------------------------------------------------------------------------|
E|---------------------------------------------------------------------------|


Chorus 1: Guitar 1

e|---------------------------------------------------------------------------|
B|---

A Direst Desire – Ddk Tabs

 -------------------------------------------------------------------------------
                             DDK - a Direst Desire
-------------------------------------------------------------------------------
: Michael Beatson
 michaeljbeason

Tuning: EADGBe
Capo 4th Fret


Intro: Guitar 1

e|--3----3----3----3----3----3----0----3--3----------------------------------|
B|--3----3----3----3----3----3----0----3--3----------------------------------|
G|--0----0----0----0----0----0----2----0--0----------------------------------|
D|--2----2----0----2----2----2----2----0--0----------------------------------|
A|--2----2----2----3----2----2----0----2--0----------------------------------|
E|--0----0----3---------0----0---------3--2----------------------------------|

Intro: Guitar 2 (in no relation to capo position)

e|---------------------------------------------------------------------------|
B|---------------------------------------------------------------------------|
G|--888888-1111-131313--88888b8b8-111111-131313------------------------------|
D|---------------------------------------------------------------------------|
A|---------------------------------------------------------------------------|
E|---------------------------------------------------------------------------|


Verse 1: Guitar 1

e|--0----0----0----0----0----0----1----1-------------------------------------|
B|--0----1----0----1----0----1----1----1-------------------------------------|
G|--2----0----2----0----2----0----2----2-------------------------------------|
D|--2----2----2----2----2----2----3----3-------------------------------------|
A|--0----3----0----3----0----3----3----3-------------------------------------|
E|---------------------------------------------------------------------------|

Verse 1: Guitar 2: Same chords PM'd in a stabby pattern.


Intro: Guitar 1 & 2: Same as first Intro.


Verse 2: Guitar 1: Same as Verse 1.

Verse 2: Guitar 2: Same as Verse 1.


Pre-Chorus: Guitar 1

e|--0----0-------------------------------------------------------------------|
B|--1----1-------------------------------------------------------------------|
G|--2----0-------------------------------------------------------------------|
D|--2----2--------x2---------------------------------------------------------|
A|--0----3-------------------------------------------------------------------|
E|---------------------------------------------------------------------------|

Pre Chorus: Guitar 2: echo notes/ringouts


Chorus 1: Guitar 1

e|-----0-------0-------0-------0---------------------------------------------|
B|-----1-------1-------3-------3---------------------------------------------|
G|-----0-------0-------0-------0---------------------------------------------|
D|--2--2----2--2----2--2----2--2---------------------------------------------|
A|--2--3----2--3----2--3----2--3---------------------------------------------|
E|--0-------0-------0-------0------------------------------------------------|

Chorus 1: Guitar 2 (in no relation to capo position)

e|-------------------------7p0-----------------------7-------7p0-------------|
B|--7h99-7-9-7-9br-7-9-79p0---7p0------7h99-7-9-7-9br--9-79p0---7p0----------|
G|---------------------------------x2--------------------------------x2------|
D|---------------------------------------------------------------------------|
A|---------------------------------------------------------------------------|
E|---------------------------------------------------------------------------|


Bridge: Guitar 1

e|---------------------------------------------------------------------------|
B|--------------3-3----------------------------------------------------------|
G|--------------0-0----------------------------------------------------------|
D|--2-2---------2-2------Repeated--------------------------------------------|
A|--2-2-----

One Desire chords – Praise And Worship

 Intro:
 E A E A 

Verse:
 E A E A 

Pre-Chorus:
 B C#m A E B C#m A  

Chorus:
 E B C#m A E D F#m B 

Bridge:
 E F#m E/G# A C#m B A 


------------------------------------>
Verse 1 
you give it all for me 
my soul desire my everything
and all I am is devoted to you 

Verse 2
How could I fail to see 
you are the love that rescued me 
and all I am is devoted to you 

Pre-Chorus
and oh, how could I not be moved, Lord here with you 
So have your way in me, cause Lord there is just one thing 
that i will seek

Chorus 
this is my cry, my one desire 
Just to be where you are Lord now and forever 
it's more than a song, my one desire 
is to be with you, is to be with you, Jesus

Bridge 
the one thing, the one thing I ask, is to be with you

Valley Of Casualties Chords – My Jerusalem

 Valley Of Casualties
by My Jerusalem

 D A 
Night is creeping through our neighbourhood
                       Bm 
Tucking in the indian sun
                                 D 
Throwing shadows on the asphalt plane

 D A 
Kids playin baby if you love me smile
                                     Bm 
Saying I love you, but i just cant smile
                             D 
And laughing cuz its just a game

R:
    G 
We wade through the valley of casualties
 D 
caused by all the things that we
   G D 
deny ourselves in the wake of a world
                             G 
thats stuck behind traffic lights
                              D 
no longer do i need to be be blinded
                          A 
from the things that i desire

the things that i desire


My friends, feels like theyre aging at a rapid pace
Soft faces in a hard parade
left with no one but themselves to blame

Snow never seems to find its way down south
always waiting for a season to change
never get to see the Ice Capades

R:
We wade through the valley of casualties
caused by all the things that we
deny ourselves in the wake of a world
thats stuck behind traffic lights
no longer do i need to be be blinded
by the things that i desire
the things that i desire

 Bm A D G Bm A D Bm A D G Bm A D 

R:
We wade through the valley of casualties
caused by all the things that we
deny ourselves in the wake of a world
thats stuck behind traffic lights
no longer do i need to be be blinded
by the things that i desire
the things that i desire

Atticus Chords – Noisettes V2

 I submitted my own chords before, but I realize that for some, playing with the 
capo on 7 is odd. So, I bring you another version... Easier. Enjoy.



Intro:
 Em G C D C G D  (space out the notes like this is the chorus)

     C G 
To kill a mockingbird is to silence the song
           D 
That seduces you
 Bm 
Why?
                  C G D Bm 
'cause you need that desire in your heart to survive
          C G D 
And you need that burning fire in your soul to know
You're still alive
                                C 
So catch me when I fall
              Bm Em 
Or did I dive at your delight?

 Em G 
In my heart I can fly
                             C D 
And I cannot disguise my love
                     C 
There is no time
 G D 
And I wouldn't know how
 Em G 
Constellations tonight
                                   C D 
Are so fiercesomely bright, my love
                  C 
I have no fear
 G D 
I am Atticus now

       C  
Remember what I lost
       G D 
like hot coals in my hand
                          Bm 
from days gone by
              C G D Bm 
Like Pandora adored the euphoria as her heart raced
                C 
Like love lost 
                              G 
you've got to try even in vain
          D Bm 
Feels like you'll go insane
                                    C 
But you're the hardest instrument
               Bm Em 
that I've ever had to play

 Em G 
In my heart I can fly
                             C D 
And I cannot disguise my love
                     C 
There is no time
 G D 
And I wouldn't know how
 Em G 
Constellations tonight
                                   C D 
Are so fiercesomely bright, my love
                  C 
I have no fear
 G D 
I am Atticus now

                           C B7 Em 
So why don't we fall into the waves?
                                      C B7 Em 
Can't you see how my heart yearns to misbehave?

 Em G 
In my heart I can fly
                             C D 
And I cannot disguise my love
                     C 
There is no time
 G D 
And I wouldn't know how
 Em G 
Constellations tonight
                                   C D 
Are so fiercesomely bright, my love
                  C 
I have no fear
 G D 
I am Atticus now

Come Awaken Love Chords – Bethel Live

 Intro:  Eb Bb/D F  x2


Verse1:
 Eb Bb/D F Gm Eb 
Like a fire in the night, Who's flames reach and touch the sky
            Bb/D F Eb 
Burn within my soul and mind, `Till are I see are Your eyes
             Bb/D F Gm Eb 
Like the dawn takes back the light, Like Your Son brought back to life
         Bb/D F Cm Gm F 
Resurrect my soul's desire, To burn again with true love's fire
                     Cm Gm F 
With true love's fire




Chorus:
             Gm Eb Bb 
Lord God come awaken love
                           Gm Eb Bb 
Come stir my soul to long for all You are
                          Gm Eb Bb 
I'm desperate just to have more of Your heart
                     Gm Eb Bb 
Come awaken love




Bridge:
          Eb         Bbsus  Bb 
`Cause I live to love You
   Gm F 
Almighty God of love
              Eb          Bbsus  Bb 
And my desire is to know you
      Gm F 
And give you all my heart

Final Chorus:
             Eb Bb 
Lord God come awaken love
                           Eb Bb 
Come stir my soul to long for all You are
                          Gm Eb Bb 
I'm desperate just to have more of Your heart
                    Gm ///  Eb ///  Bb /// // Cm / x3               Last:  Gm ///  Eb ///  Bb 
Come awaken love

Pyt Pretty Young Thing Chords – Michael Jackson V3

 This is my version based on how I hear it. 
 
The bass line stays really busy, creating triads over bass notes.
  
I have tried to simplify it for the sake of writing something that
is readable.  

However, if you listen to the music, you will likely find plenty of 
opportunity to play rhythmic Sus chords in many areas.  Enjoy! 
===================================================================



Intro:
(vamp until ready to start verse)
 Am7 D7 


1st Verse:
==========
 Am7 D7 
Where Did You Come From Lady
     F 
And Ooh Won't You Take Me There
 Am7 
Right Away Won't You Baby
 Am7 D7 
Tendoroni You've Got To Be
          F 
Spark My Nature
       Am7 
Sugar Fly With Me


Bridge:
=======
                FMaj7 
Don't You Know Now
        D/E E 
Is The Perfect Time
 G/A 
We Can Make It Right
         A7 
Hit The City Lights
        Fmaj7 
Then Tonight 
          D/E E 
Ease The Lovin' Pain
 Bb/C A7 (#5,#9)
Let Me Take You To The Max


Chorus:
=======
           Dm7 
I Want To Love You (P.Y.T.)
                     G 
Pretty Young Thing
               Dm7 
You Need Some Lovin' (T.L.C.)
                     G 
Tender Lovin' Care
     F F C/E G/A A7 
And I'll Take You There
           Dm7 
I Want To Love You (P.Y.T.)
                     G 
Pretty Young Thing
               Dm7 
You Need Some Lovin' (T.L.C.)
                     G 
Tender Lovin' Care
 F F C/E G/A A7 
I'll Shake You There


Background:
===========
 F/G G 
Anywhere You Wanna Go


2nd Verse:
==========
 Am7 D7 
Nothin' Can Stop This Burnin'
 F 
Desire To Be With You
 Am7 
Gotta Get To You Baby
 Am7 D7 
Won't You Come, It's Emergency
         F 
Cool My Fire Yearnin'
             Am7 
Honey, Come Set Me Free


Bridge:
=======
                FMaj7 
Don't You Know Now
        D/E E 
Is The Perfect Time
 G/A 
We Can Dim The Lights
         A7 
Just To Make It Right
        Fmaj7 
In The Night 
         D/E E 
Hit The Lovin' Spot
 Bb/C A7 (#5,#9)
I'll Give You All That I've Got


Chorus:
=======
           Dm7 
I Want To Love You (P.Y.T.)
                     G 
Pretty Young Thing
               Dm7 
You Need Some Lovin' (T.L.C.)
                     G 
Tender Lovin' Care
     F F C/E G/A A7 
And I'll Take You There
           Dm7 
I Want To Love You (P.Y.T.)
                     G 
Pretty Young Thing
               Dm7 
You Need Some Lovin' (T.L.C.)
                     G 
Tender Lovin' Care
 F F C/E G/A A7 
I'll Take You There


Breakdown:
==========
  E5 E5 F5 F# 
(Pretty Young Things)    Ooh!

  G5 G5 G#5 A D/A C/A 
(Pretty Young Things)

  E5 E5 F5 F# 
(Pretty Young Things)    Ooh!

  G5 G5 G#5 A           
(P

Think Its Gonna Work Out Fine Chords – Ike Tina Turner

 C 
Darling (Yes Tina). 
     F C 
You started getting next to me.
(Honey that was my plan from the very begining).
 C F G 
Darling (aha) I never thought that this could be.
(What d'you mean?)
Oh Yeah.

 F 
Your lips set my soul on fire.
 C 
You fulfil my one desire.
    F 
Oh darling. (yes yes)
   G C 
I think it's gonna work out fine. 
(it's gonna work out fine).

I wanna tell you something Ike.

 C F C 
Ikey (aha), I've been to see the preacher man.
(A preacher man, you must be loosing your mind)
 C 
I started (started what?)
 F G 
Started making wedding plans (Oh really?). 
Oh Yeah.

 F                
If your love is half as true.
 C 
As the love I offer you.
    F 
Oh darling (yes yes)
   G C 
I think it's gonna work out fine 
(it's gonna work out fine)

 C F 
I keep on telling ya. (I think it's gonna work out fine)
                         C 
I can feel it's gonna. (feel it's gonna work out)
                        F 
I keep on telling ya. (I know it's gonna work out fine)
 G 
I'm so glad that your mine all mine.

 C 
Remember? (Remember what?)
      F C 
They used to call you dapper Dan.
(Yes those were the good old days)
     C 
The thriller. (The killer honey)
     F G 
The ever-ready loving man. (That's me)
Oh Yeah.
   F  
A whole lot of girls used to be your speed.
     C 
But now pretty daddy I'm all you need.
    F G C 
Oh darling (yes yes) I know it's gonna work out fine. 
(it's gonna work out fine)
                          F 
I keep on telling ya. (I think it's gonna work out fine)
                         C 
I can feel it's gonna. (feel it's gonna work out)
                        F 
I keep on telling ya. (I know it's gonna work out fine)
                     C 
I know it's gonna. (I know it's gonna work out fine).
(fadeout)

All I Want Is You Chords – Barry Louis Polisar V6

 G C G      
If i was a flower growing wild and free
 G D G 
All i'd want is you to be my sweet honey bee.
 G C G 
And if i was a tree growing tall and greeen
 G D G 
All i'd want is you to shade me and be my leaves
 G C G              
If i was a flower growing wild and free
 G D G 
All i'd want is you to be my sweet honey bee.
 G C G 
And if i was a tree growing tall and greeen
 G D G 
All i'd want is you to shade me and be my leaves
 G C G 
All i want is you, will you be my bride
 G D G 
Take me by the hand and stand by my side
 G C G 
All i want is you, will you stay with me?
 G D G 
Hold me in your arms and sway me like the sea.
 G C G 
If you were a river in the mountains tall,
 G D G 
The rumble of your water would be my call.
 G C G 
If you were the winter, i know i'd be the snow
 G D G 
Just as long as you were with me, let the cold winds blow
 G C G 
All i want is you, will you be my bride
 G D G 
Take me by the hand and stand by my side
 G C G 
All i want is you, will you stay with me?
 G D G 
Hold me in your arms and sway me like the sea.
 G C G 
If you were a wink, i'd be a nod
 G D G 
If you were a seed, well i'd be a pod.
 G C G 
If you were the floor, i'd wanna be the rug
 G D G 
And if you were a kiss, i know i'd be a hug
 G C G 
All i want is you, will you be my bride
 G D G 
Take me by the hand and stand by my side
 G C G 
All i want is you, will you stay with me?
 G D G 
Hold me in your arms and sway me like the sea.
 G C G 
If you were the wood, i'd be the fire.
 G D G 
If you were the love, i'd be the desire.
 G C G 
If you were a castle, i'd be your moat,
 G D G 
And if you were an ocean, i'd learn to float.
 G C G 
All i want is you, will you be my bride
 G D G 
Take me by the hand and stand by my side
 G C G 
All i want is you, will you stay with me?
 G D G 
Hold me in your arms and sway me like the sea.

Jadore Chords – Inna V2

 Chorus:
                      Dm 
And if you’re really love me, 
                      C 
I’ll never leave you lonely, 
                      F 
Boy you could be my only, 
                    Gm 
Cause you got the key, 
               Dm 
Tonight until forever, 
                    C   
As long as we’re together, 
                           F 
We’ll make it through whatever, 
 Gm Dm                    
You got the key to my heart.

The rest is the same.

Verse 1:
Let me up, take me higher, 
Breath me in my desire, 
No regrets, don’t deny it, 
Play to win, play to win.

Pre-chorus:
I know what they say, 
And none of them know, 
You make me feel say, 
J’adore, j’adore, 
I know what they say, 
And none of them know.

Chorus:

You got the key to my heart, to my heart, 
To my, to my, to my heart, 
You got the key to my…
To my heart, to my heart, 
You got the key to my heart.

As The Deer Chords – Martin Nystrom V6

 As the Deer
Originally by Martin Nystrom
Version by: Cathedral of Praise
Key of D

I
 D A/C# Bm D2/A 
As the deer panteth for the water
        G A D A/D G/D 
So my soul longeth after Thee
 D A/C# Bm D2/A 
You alone are my heart's desire
        G Em7 A7sus - A D A/C# 
And I long to worship   Thee

II
 Bm Bm/A G C# °7/ G D2/F# 
You alone are my strength, my     shield
    Em Em/D Em/C# F#sus - F# 
To You alone may my spirit yield
 D A/C# Bm D2/A 
You alone are my heart's desire 
       G Em7 A7sus - A D 
And I long to worship   Thee

Arrows Of Desire Chords – Matthew Good

 Matthew Good
Arrows Of Desire / Arrows Of Desire / 2013

Half-step down
All barred but its sounds better played bluntly and with the 4 bass strings.
 E  x799xx or x79900
 E * 022100

This is just the acoustic outline I've started with, input would be appreciated!

 E B G#m F#  (x2)

 E B 
On a ruined wind
    G#m F# 
To see our promise right in front of you
 E B G#m 
Silver barbs to crash the heart
                 F# 
Those gates so irremovable
 E B G#m F#      
Oh we can beg, we will bend again
 E B G#m F# 
Oh we can beg that we will bend again
 

 C#m B F# E *
Up in thin air we lie in wait
 C#m B F# E *
Up in thin air we lie in wait
 F# E *
We lie in wait

 E B G#m F#  (x2)

 E B 
Held to loose
              G#m F# 
Wait for the word to come and then to hell with you
 E B G#m F# E *
Over the fire a time to bear what those below await

( E *)  F# B E E *  F# B E E *      F# B E 
Here's my golden spear
 E *      F# B E 
Here's my cold despair
 
 C#m B F# E *
Up in thin air we lie in wait
 C#m B F# E *
Up in thin air we lie in wait
 F# E *
We lie in wait
 C#m B F# E *
Up in thin air we lie in wait
 C#m B F# E *
Up in thin air we lie in wait
 F# E *
We lie in wait 
 F# E *
We lie in wait


 E B G#m F#  (x2) 
 C#m G#m F# 

The strumming and transitions can prove difficult if you don't have a proper grasp 
of the song. BE CREATIVE! 
I'm still not 100% on this but hope you enjoy! 

Temporary Bliss Chords – The Cab V2

 Capo 1


 Em 
I come over, quarter pass two
 D 
love in my eyes, blinded by you
 C 
just to get a taste of heaven
 B 
I'm on my knees

 Em 
I can't help it, I'm addicted
 D 
but I can't take the pain inflicted
 C B 
in the morning you're not holding onto me


                Em 
Tell me what's the point of doing this every night
                           D 
What you're giving me is nothing but a heartless lullaby
                     C 
Gonna kill my dreams

Oh, this is the last time
        B 
Baby make up your mind


 Em D 
I can't keep sleeping in your bed
                             C 
If you keep messing with my head
                           B 
Before I slip under your sheets
                           Em  
Can you give me something please
                                D C 
I can't keep touching you like this if it's just temporary bliss
                B 
Just temporary bliss


 Em 
We were on fire, now we're frozen
 D 
There's no desire, nothing spoken
 C 
You keep playing
                     B 
But I keep waiting for your heart
(I keep waiting for you)


 Em 
I am fiending for the sunshine
 D 
To show our love in a good light
 C 
Give me reason
               B 
I am pleading to the stars


                Em 
Tell me what's the point of doing this every night
                           D 
What you're giving me is nothing but a heartless lullaby
                     C 
Gonna kill my dreams

Oh, this is the last time
        B 
Baby make up your mind

 Em D 
I can't keep sleeping in your bed
                             C 
If you keep messing with my head
                           B 
Before I slip under your sheets
                           Em  
Can you give me something please
                                D C 
I can't keep touching you like this if it's just temporary bliss
                B 
Just temporary bliss


 Em 
I'm your one and only
 Em 
only when you're lonely
 Em 
Na na na na
 Em 
Na na na na
 Em 
I'm your one and only
 Em 
only when you're lonely
 Em 
Na na na na
 Em 
Na na na na

 Em 
I'm your one and only
 Em 
Only when you're lonely
 D B 
baby why you calling me
 Em 
Not another one
 Em 
Not trying to be your whole life
 D B 
I don't want to fall asleep
 Em 
I'm your one and only
 Em 
Only when you're lonely
 D B 
baby why you calling me
 Em 
Not another one
 Em 
Not trying to be your whole life

 Em D 
I can't keep sleeping in your bed
                             C 
If you keep messing with my head
                           B 
Before I slip under your sheets
                           Em  
Can you give me something please
                                D C 
I can't keep touching you like this if it's just temporary bliss
                B 
Just temporary bliss


 Em D 
I can't keep sleeping in your bed
                             C 
If you keep messing with my head
                               

I Knew You That Way Chords – Luke Bryan

 Intro.:  ( C ) x 4 bars

The ( C )secret way long shadows bleed into the night
The desperate way leaves in the fall hold colors tight
The ( Dm )way that thunder knows the taste of ( G )summer rain
I knew ( C )you that way

The ( C )way cool mountain waters dance down to the sea
Bound by something strong, but still so wild and free
It ( Dm )gives into the passion of the ( G )path it takes
I knew ( C )you that way

(Chorus)
I ( F )held you closer ( Dm )than I had a ( C )right to hold
But the ( Dm )only thing that ( Am )time can't take a-( G )way
Is I knew ( C )you that way

The ( C )way that skin on skin can start a crazy fire
That no one sees but burns all night long with desire
The ( Dm )quiet ease that makes a lover ( G )wanna stay
I knew ( C )you that way

(Chorus)
I ( F )held you closer ( Dm )than I had a ( C )right to hold
But the ( Dm )only thing that ( Am )time can't take a-( G )way
Is I knew ( C )you that way |( C ) |( C ) |( C )

The ( C )holy way that love knows it should never end
The sacred way that stars guide sailors home again
Like ( Dm )teardrops know the words to A-( G )mazing Grace
I knew ( C )you that way

(Tag)
I knew ( C )you that way, I knew you that way -----