Tag: direction

Long Way Down intro Tabs – One Direction

 ----------------- LONG WAY DOWN - One Direction -----------------

: lukeypookieee

Email: slipknuts 

Tuning: Standard

this is my first tab, im pretty sure this is 100% correct!

Intro:

e|--0---0---3---3---5---5----------------------------------------|
B|--------------------------1---1--------------------------------|
G|---------------------------------------------------------------|
D|---------------------------------------------------------------|
A|---------------------------------------------------------------|
E|---------------------------------------------------------------|

e|---------------------------------------------------------------|
B|--1---1---3---3---5---5----------------------------------------|
G|--------------------------2---2--------------------------------|
D|---------------------------------------------------------------|
A|---------------------------------------------------------------|
E|---------------------------------------------------------------|



| /  slide up
| \  slide down
| h  hammer-on
| p  pull-off
| ~  vibrato
| +  harmonic
| x  Mute note

Night Changes Chords – One Direction

Capo on 1st.

Intro Tab (Optional):

e|--10--------|
B|------10----|
G|----12--12--|   x 4
D|------------|
A|------------|
E|------------|

Verse 1:
G           
Going out tonight, changes into something red
Em
Her mother doesn't like that kind of dress
Bm
Everything she never had
              D
She’s showing off
G
Driving too fast, moon is breaking through her hair
Em
She said it was something that she won’t forget
Bm                                        D
Having no regrets is all that she really wants


Chorus:
C                  D
We're only getting older baby
C                      D
And I've been thinking about it lately
C            D
Does it ever drive you crazy
G        D        Em
Just how fast the night changes
C                      D
Everything that you've ever dreamed of
C            D
Disappearing when you wake up
C                      D
But there’s nothing to be afraid of
G    D        Em
Even when the night changes
C             D
It will never change me and you


Verse 2:
G
Chasing her tonight, doubts are running ‘round her head
Em
He’s waiting, hides behind his cigarette
Bm                                             D
Heart is beating loud, she doesn't want it to stop
G
Moving too fast, moon is lighting up her skin
Em
She’s falling, doesn't even know it yet
Bm                                        D
Having no regrets is all that she really wants


Chorus:
C                  D
We're only getting older baby
C                      D
And I've been thinking about it lately
C            D
Does it ever drive you crazy
G        D        Em
Just how fast the night changes
C                      D
Everything that you've ever dreamed of
C            D
Disappearing when you wake up
C                      D
But there’s nothing to be afraid of
G    D        Em
Even when the night changes
C             D             A
It will never change me and you


Breakdown:
A F#m D E

A
Going out tonight, changes into something red
F#m
Her mother doesn't like that kind of dress
C#m                                               E
Reminds her of a missing piece of innocence she lost


Final Chorus:
D                  E
We're only getting older baby
D                      E
And I've been thinking about it lately
D            E
Does it ever drive you crazy
A        E        F#m
Just how fast the night changes
D                      E
Everything that you've ever dreamed of
D            E
Disappearing when you wake up
D                      E
But there’s nothing to be afraid of
A    E        F#m
Even when the night changes

D             E
It will never change, baby
D             E
We will never change, baby
D             E             A
It will never change me and you

Act My Age intro Tabs – One Direction

 -------------------------------------------------------------------------------
                             ACT MY AGE - ONE DIRECTION
-------------------------------------------------------------------------------
: Claire
Tuning: Standard
Capo: 6

e|---------------------------------------------------------------------------|
B|-------------------------1-1-1-1-------------------------------------------|
G|---------------------0-2---------2-0---------------------------------------|
D|-----0-2-3-3-2-0-----------------------------------------------------------|
A|-3-3-------------3-3-------------------------------------------------------|
E|---------------------------------------------------------------------------|

e|---------------------------------------------------------------------------|
B|-----------------------1-0-------------------------------------------------|
G|---------------------0-----2-0---------------------------------------------|
D|-----0-2-3-3-2-0---------------3-2-0---------------------------------------|
A|-3-3-------------3-3-------------------------------------------------------|
E|---------------------------------------------------------------------------|

e|---------------------------------------------------------------------------|
B|-------------------------1-----1-------------------------------------------|
G|---------------------0-2---2-0---2-0---------------------------------------|
D|-----0-2-3-3-2-0-----------------------------------------------------------|
A|-3-3-------------3-3-------------------------------------------------------|
E|---------------------------------------------------------------------------|

e|-----------------------------0-3-5-8---------------------------------------|
B|-------------------------1-3-----------------------------------------------|
G|---------------------0-2---------------------------------------------------|
D|-----0-2-3-3-2-0-----------------------------------------------------------|
A|-3-3-------------3-3-------------------------------------------------------|
E|---------------------------------------------------------------------------|

************************************

| /   slide up
| \   slide down
| h   hammer-on
| p   pull-off
| ~   vibrato
| +   harmonic
| x   Mute note
| b   Bend
| pb  Pre-bend
| br  Bend release
| pbr Pre-bend release
| brb Bend release bend

************************************

Spaces chords – One Direction V3

 Hi, I hope this is OK because I worked it out by ear... corrections welcome bad comments not :)

 G 
Who's gonna be the first one to start the fight
 C 
Who's gonna be the first one to fall asleep at night
 Em 
Who's gonna be the last one to drive away
 C 
Who's gonna be the last one to foget this this place

 Em Am 
We keep taking turns 
 Em Am  (stop)
When will we learn 

                G C 
Oh, Spaces between us, keep getting deeper
                Em C 
It's harder to reach her, even though I tried
                G C 
Spaces between us, hold all our secrets
                Em C 
Leaving us speechless, and I don't know why

 D 
Who's gonna be the first one to say goodnight?  G C Em C 

Who's gonna be the first one to compromise
Who's gonna be the first one to set it all on fire
Who's gonna be the last one drive away
Forgetting every single promise we ever mad

 Em Am 
We keep taking turns 
 Em Am  (stop)
Will we ever learn 

                G C 
Oh, Spaces between us, keep getting deeper
                Em C 
It's harder to reach her, even though I tried
                G C 
Spaces between us, hold all our secrets
                Em C 
Leaving us speechless, and I don't know why

 D 
Who's gonna be the first one to say goodnight?  G C Em C Em Am 
We keep taking turns 
 Em Am 
When will we learn 
 Em Am  (stop)
Will we ever learn

(no strumming)              
Oh, Spaces between us, keep getting deeper
                Em C 
It's harder to reach her, even though I tried
                G C 
Spaces between us, hold all our secrets
                Em C 
Leaving us speechless, and I don't know why

 D 
Who's gonna be the first one to say goodbye?  G C Em C G 
Spaces between us x3

 C G 
The spaces between us

Something Great chords – One Direction V3

 One Direction
Something Great- Midnight Memories (2013)

----------
Capo on second

 C F Am G C F Am G 
One day you'll come into my world and say it all
 C F Am G 
You say we'll be together even when you're lost
 C F Am G 
One day you'll say these words I thought but never said
 C F Am G C 
You say we're better off together in our bed


            F 
I want you here with me
            Am 
Like how I pictured it
            G C 
So I don't have to keep imagining
               F 
Come on, jump out at me
                Am 
Come on, bring everything
           G 
Is it too much to ask for something great?


 C F Am G 
The script was written and I could not change a thing
 C F Am G 
I want to rip it all to shreds and start again
 C F Am G 
One day I''ll come into your world and get it right
 C F Am G C 
I'll say we''re better off together here tonight



            F 
I want you here with me
            Am 
Like how I pictured it
            G C 
So I don't have to keep imagining
               F 
Come on, jump out at me
                Am 
Come on, bring everything
           G 
Is it too much to ask for something great?


 C F Am G  (x2)

   C F 
I want you here with me
            Am 
Like how I pictured it
            G C 
So I don't have to keep imagining
               F 
Come on, jump out at me
                Am 
Come on, bring everything
           G 
Is it too much to ask for something great?

(x2)


 C F 
You're all I want
 Am G 
So much it's hurting
 C F 
You''re all I want
 Am G C 
So much it's hurting

Story Of My Life Tabs by One Direction V4

 Here is the fingerpicking tab I came up with for the song, it seems to keep in time when
I play it along with the song. Just remember to keep the timing in mind with the notes.

Here is a video tutorial on the finger picking and strumming pattern for this tab. Check 
it out here!





Capo 3

Intro: Am C


 e|-------------0--------------------------------------------------------------|
B|-----------1-----------------------------1-----------------------------------|
G|--------2---2-----2---2--X2-----0----0-------0---0--X2-----------------------|
D|----------2---------2-------------2------------2-----------------------------|
A|------0---------0-------------3--------3---3---------------------------------|
E|-----------------------------------------------------------------------------|



  Am                                                C
Written in these walls are the stories that I can't explain
  Am                                                    C
I leave my heart open but it stays right here empty for days

    Am                                                             C
She told me in the morning she don't feel the same about us in her bones
   Am                                                            C
It seems to me that when I die these words will be written on my stone

            F    G    Am
And I'll be gone gone tonight
                      F       G    Am
The ground beneath my feet is open wide
                    F       G      Am
The way that I been holdin' on too tight
                G
With nothing in between

    C
The story of my life I take her home
  F                                    Am
I drive all night to keep her warm and time
  F     C
Is frozen (the story of, the story of)
    C
The story of my life I give her hope
  F                                  Am
I spend her love until she's broke inside
 F     C
The story of my life (the story of, the story of)


Repeat

           F                             G
And I been waiting for this time to come around
         F                                     G
But baby running after you is like chasing the clouds


(Strum These Once)
    C
The story of my life I take her home
  F                                    Am
I drive all night to keep her warm and time
       F
Is frozen

The Wrong Direction Acoustic Tabs by Passenger

 ACOUSTIC LIVE VERSION

Passenger The Wrong Direction

Capo 5th fret

--- Scott Gittins---

TRUE acoustic version as heard on Coffeehouse satellite radio and seen on youtube
CARFEULLY  yours truly


Quick note: Intro and beginning verses are assumed to be picking unless the ^ thumb
arrow designates a upflick strum with the thumb designated by TmbSt and any of the xxxx 
is a
chuck / slap on some of the strings. m is mute anywhere in the tab.

This is my first real tab by hand and reverse engineering from a video.  Takes forever,
if you see errors please not and I will fix asap.  Thanks!  Enjoy

| /  slide up
| \  slide down
| h  hammer-on
| p  pull-off
| ~  vibrato
| +  harmonic
| x  chuck – finger clap onto strings
| m  Mute note

Capo 5th fret positions listed are starting from capo (5th is 0)

Intro:
                                                             TmbSt
                 F               C              G5    C5/G   Gadd2
                                                             ^
e|-----------------------------------------------------------3--------|
B|--3/5--5/3p0--1---x--1-1-1--x--1-1-x---3/5/3--3-x-3--1--0--0--x-----|
G|--2/4--4/2p0--0h2-x--0h2p0--x--0-0-x---2/4/2--0-x-0--0--0--0--x-----|
D|--------------3---x--3-3-3--x--2-2-x----------0-x-0--0--0--0--x-----|
A|------------------x---------x--3---x------------x----------0--x-----|
E|--------------1------1------------------------3---3--3--3--3--------|
                                                             ^
Intro Continued
                 F            C                G5   C5/G  TmbSt TmbSt
                                                          ^     ^
e|--------------------------------------------------------3-----3----|
B|--3/5/3p0--1---x--1-1-1--x--1-1-x---3/5/3--3-x-3--1--0--0--x--0--x-|
G|--2/4/2p0--0h2-x--0h2p0--x--0-0-x---2/4/2--0-x-0--0--0--0--x--0--x-|
D|-----------3---x--3-3-3--x--2-2-x----------0-x-0--0--0--0--x--0--x-|
A|---------------x---------x--3---x------------x----------0--x--0--x-|
E|-----------1------1------------------------3---3--3--3--3-----3----|
                                                          ^     ^
************
Verse:
    F      TmbSt C    TmbSt   G      TmbSt Am     TmbSt
           ^            ^            ^            ^
e|----------------------0------------3---------------------|
B|--1--x-1-1-x---1--x-1-1-x---0--x-0-0-x---1--x-1-1-x------|
G|--2--x-2-2-x---0--x-0-0-x---0--x-0-0-x---2--x-2-2-x------|
D|--3--x-3-3-x---2--x-2-2-x---0--x-0-0-x---2--x-2-2-x------|
A|---------m-x---3--x-3-3-x----------m-----0--x-0-0-x------|
E|--1--x-1-1-x----------------3--x-3-3-x-------------------|
           ^            ^            ^            ^
Repeat this above verse pattern 3 times

Verse ending chord progression is same as above but does not include the Am, rather it
repeats the G chord shape as seen below

    F      TmbSt C    TmbSt   G      TmbSt TmbSt TmbSt
           ^            ^            ^     ^     ^
e|----------------------0------------3-----3-----3-----|
B|--1--x-1-1-x---1--x-1-1-x---0--x-0-0-x-0-0-x-0-0-x---|
G|--2--x-2-2-x---0--x-0-0-x---0--x-0-0-x-0-0-x-0-0-x---|
D|--3--x-3-3-x---2--x-2-2-x---0--x-0-0-x-0-0-x-0-0-x---|
A|---------m-x---3--x-3-3-x----------m-----m-----m-x---|
E|--1--x-1-1-x----------------3--x-3-3-x-3-3-x-3-3-----|
           ^            ^            ^     ^     ^

The rest is easy cake.  I do not think it is necessary to do the rest at this time.  If
you want more please comment or email me. If you master these first two iterations of
the chord progression, the third iteration is a simple strum plucking the bass note of 
each chord as you go through.


Verse Lyrics with chord shapes:

             F                                  C
When I was a kid, the things I did, were hidden under the grid
          G                  

Diana chords – One Direction V9

 hi guys! this is my first tab! did it by ear and strumming pattern takes some 
getting used to so please comment! :)
no  capo 


  D Em G Bm D 


Diana



Front pages all your pictures
They make you look so small
How could Someone not miss you at all

I never would mistreat ya
I'm not a criminal
I speak a different language
But I still hear your call

Diana
Let me be the one to
Light a fire inside your life
You can own me
You don't even know me
But I can feel you crying
Diana
Let me be the one to
Lift your heart up and save your life
I don't think you even realize
Baby you'll be saving mine

It's only been 4 months but
You've fallen down so far
How could someone mislead you at all

I wanna reach out for ya
I wanna break these walls
I speak a different language
But I still hear your call

Diana
Let me be the one to
Light a fire inside your life
You can own me
You don't even know me
But I can feel you crying
Diana
Let me be the one to
Lift your heart up and save your life
I don't think you even realize
Baby you'll be saving mine

We all need something
This can't be over now
If I could hold her
Swear I'd never put you down

Diana
Let me be the one to
Light a fire inside your life
You can own me
You don't even know me
But I can feel you crying
Diana
Let me be the one to
Lift your heart up and save your life
I don't think you even realize
Baby you'll be saving mine

Oh, oh, oh
Diana
Oh, oh, oh
Diana
Baby you'll be saving mine

Oh, oh, oh
Diana
Oh, oh, oh
Diana
Baby you'll be saving mine

Moments chords – One Direction V5

 hi! this is my first tab! I hope you like it!! :D 
(*) this means one strum
CAPO 2

[Verse 1]
 Am C 
Shut the door turn the light off
            G   
I wanna be with you
              Am 
I wanna feel your love
            C  
I wanna lay beside you
          G Am   
I cannot hide this even though I try


 C             
Heart beats harder

Time escapes me
 G D 
Trembling hands touch skin
               Am      
It makes this harder
         C G    
And the tears stream down my face
 D Am                
If we could only have this life for one more day
 C                         *  G 
If we could only turn back time

[Chorus]
 (no strum)             
You know I'll be
 C G D                
Your life, your voice your reason to be
 Am 
My love, my heart
 C                  
Is breathing for this
 G 
Moment in time
 D                      *  Am   
I'll find the words to say
* C 
Before you leave me today

 G          
Close the door
 D 
Throw the key
 Am                 
Don't wanna be reminded
 C 
Don't wanna be seen
                   G 
Don't wanna be without you
                    D 
My judgement is clouded
          Am        
Like the night sky
           C 
Hands are silent
          G 
Voice is numb
               D 
Try to scream out my lungs
        Am C       
But it makes this harder
         G Am   
And the tears stream down my face
 D C                 
If we could only have this life for one more day
 Am D 
If we could only turn back time

[Chorus]
(no strum)              
You know I'll be
 C G Am   
Your life, your voice your reason to be
    C G 
My love, my heart
    D               
Is beating for this
 Am C 
Moment in time
 G                      *  D   
I'll find the words to say
 C 
Before you leave me today

 Am                   
Flashes left in my mind
 C                   
Going back to the time
 G                         
Playing games in the street
 D Am   
Kicking balls with my feet
                     C 
Theres a numb in my toes
                       G 
Standing close to the edge
                      D Am 
There's a pile of my clothes at the end of your bed
                  C  
As I feel myself fall
                 * G 
Make a joke of it aaaaaall


[Chorus]
(no strum)              
You know I'll be
 C G Am             
Your life, your voice your reason to be
 C G 
My love, my heart
    D               
Is beating for this
 Am C 
Moment in time
                      *  G  
I'll find the words to say
 Am 
Before you leave me today

[Chorus]
(No strum)              
You know I'll be
 C G Am   
Your life, your voice your reason to be
 C G 
My love, my heart
    D               
Is beating for this
 Am C 
Moment in time
                     *  G   
I'll find the words 

You And I Tabs by One Direction

 One Direction – You & I (TAB with Strumming Pattern, CHORDS)

+ Capo: 1st fret

^ = Strumming From The BOTTOM


Intro: x2
   F     G     a               C             F
e|-1-----3---3-0-------0-----0-0------0----0-1------1----1-|
H|-1---1-3-3-3-1----1--1---1-1-1---1--1--1-1-1---1--1--1-1-|
G|-2---2-0-0-0-2----2--2---2-2-0---0--0--0-0-2---2--2--2-2-|
D|-3---3-0-0-0-2----2--2---2-2-2---2--2--2-2-3---3--3--3-3-|
A|-3---3-2-2-2-0----0--0---0-0-3---3--3--3-3-3---3--3--3-3-|
E|-1---1-3-3-3-------------------------------1---1--1--1-1-|
         ^   ^               ^             ^             ^

Verse:
   G                                            D/F#
e|-3-----3-----3-----3----3-3-----3----3-3----3-2----2-|
H|-3-----3-----3--3--3--3-3-3--3--3--3-3-3--3-3-3--3-3-|
G|-0-----0-----0--0--0--0-0-0--0--0--0-0-0--0-0-2--2-2-|
D|-0-----0-----0--0--0--0-0-0--0--0--0-0-0--0-0-0--0-0-|
A|-2-----2-----2--2--2--2-2-2--2--2--2-2-2--2-2-0--0-0-|
E|-3-----3-----3--3--3--3-3-3--3--3--3-3-3--3-3-2--2-2-|
                          ^            ^      ^      ^
   e                         C
e|-0-----0----0-0-----0----0-0-----0----0-0-----0----0-|
H|-0--0--0--0-0-0--0--0--0-0-1--1--1--1-1-1--1--1--1-1-|
G|-0--0--0--0-0-0--0--0--0-0-0--0--0--0-0-0--0--0--0-0-|
D|-2--2--2--2-2-2--2--2--2-2-2--2--2--2-2-2--2--2--2-2-|
A|-2--2--2--2-2-2--2--2--2-2-3--3--3--3-3-3--3--3--3-3-|
E|-0--0--0--0-0-0--0--0--0-0---------------------------|
              ^            ^            ^            ^

   G                                              D/F#
e|-3-----3----3-3-----3----3---3----3----3-3----3-2----2-|
H|-3--3--3--3-3-3--3--3--3-3-3-3-3--3--3-3-3--3-3-3--3-3-|
G|-0--0--0--0-0-0--0--0--0-0-0-0-0--0--0-0-0--0-0-2--2-2-|
D|-0--0--0--0-0-0--0--0--0-0-0-0-0--0--0-0-0--0-0-0--0-0-|
A|-2--2--2--2-2-2--2--2--2-2-2-2-2--2--2-2-2--2-2-0--0-0-|
E|-3--3--3--3-3-3--3--3--3-3-3-3-3--3--3-3-3--3-3-2--2-2-|
              ^            ^   ^         ^      ^      ^
   e                         C
e|-0-----0----0-0-----0----0-0-----0----0-0-----0----0-|
H|-0--0--0--0-0-0-(0)-0--0-0-1-----1--1-1-1-----1--1-1-|
G|-0--0--0--0-0-0-(0)-0--0-0-0-----0--0-0-0-----0--0-0-|
D|-2--2--2--2-2-2-(2)-2--2-2-2-----2--2-2-2-----2--2-2-|
A|-2--2--2--2-2-2-(2)-2--2-2-3-----3--3-3-3-----3--3-3-|
E|-0--0--0--0-0-0-(0)-0--0-0---------------------------|
              ^            ^            ^            ^

Pre-chorus:
   e         D/F# C           e          D/F# C
e|-0-----------2--0-----(0)---0------------2--0-----------|
H|-0-----------3--1-----(1)---0------------3--1-----------|
G|-0-----------2--0-----(0)---0------------2--0-----------|
D|-2-----(2-2)-0--2-----(2)---2----(2-2-2)-0--2-----------|
A|-2-----(2-2)-0--3-----(3)---2----(2-2-2)-0--3-----------|
E|-0-----(0-0)-2--------------0----(0-0-0)-2--------------|
          . .            ^          . . .


Chorus: x2

   F     G     a                C           F
e|-1-1---3---3-0---0---0-0----0-0----0----0-1----1-1----1-|
H|-1-1-1-3-3-3-1---1-1-1-1--1-1-1----1--1-1-1--1-1-1--1-1-|
G|-2-2-2-0-0-0-2---2-2-2-2--2-2-0----0--0-0-2--2-2-2--2-2-|
D|-3-3-3-0-0-0-2---2-2-2-2--2-2-2----2--2-2-3--3-3-3--3-3-|
A|-3-3-3-2-2-2-0---0-0-0-0--0-0-3----3--3-3-3--3-3-3--3-3-|
E|-1-1-1-3-3-3------------------------------1--1-1-1--1-1-|
     ^   ^   ^    (^)  ^      ^           ^      ^      ^

   e           F             G
e|-0----0----0-1----1-1----1-3----3-----3-3--|
H|-0----0--0-0-1--1-1-1--1-1-3--3-3-(3)-3-3--|
G|-0----0--0-0-2--2-2-2--2-2-0--0-0-(0)-0-0--|
D|-2----2--2-2-3--3-3-3--3-3-0--0-0-(0)-0-0--|
A|-2----2--2-2-3--3-3-3--3-3-2--2-2-(2)-2-2--|
E|-0----0--0-0-1--1-1-1--1-1-3--3-3-(3)-3-3--|
             ^      ^      ^      ^     ^

Post-chorus:
   F     G     a                C            F
e|-1-1---3---3-0---0---0-0----0-0-----0----0-1-----1----1-|
H|-1-1-1-3-3-3-1---1-1-1-1--1-1-1--1--1--1-1-1--1--1--1-1-|
G|-2-2-2-0-0-0-2---2-2-2-2--2-2-0--0--0--0-0-2--2--2

No Direction Home chords – I Am Kloot

 From the Gods And Monsters album. 
Very simple chords, the trick is the riff which is always played over the Am chord.

Am Riff played constantly over the Am chord
 
E ---------0----0---0|
B ---1--3--x--3---3--|
G ---2--2--2--2------|
D ---2---------------|
A 0------------------|
E x------------------|


Chords
======

 Am         x02210
 F          133211
 G          320003


Intro 
=====

Am Riff1 x 4


Verse 1
=======

 Am 
   Crawl upon the earth scour the universe you know

                                                 F 
Set my compass north circumscribe the earth and go

      G Am 
With no direction home


Verse 2
=======

What's my part in this what's this dream I cant let go
What's your way with this

                                             F 
What d'ya want to see and who d'you want to know

        G Am 
You've no direction home

              F 
No direction home

 G Am 
No direction


Verse 3
=======

Feels like all is lost there's nowhere left to go

                                                               F  
Through the seasoned sands across the sky through the morning snow

          G Am  
Is there no direction home

                 F 
Nowhere left to go

 G Am 
No direction


Out
===

Am Riff x 4 - finish on Am chord




-----------------------------------------

I hope I've done it justice!

Kevin O'Brien
Watford
England
January 2014

watfordkev

Does He Know chords – One Direction V2

 VERSE

He knows about you in every way
He's memorized every part of your face
Inside and out, baby, head to toe
Yeah, he knows everything there is to know

    G# C#        slide to   Fm   

e|--X--------X-------------------X-------------------------------|
B|--X--------4-------------------9-------------------------------|
G|-13--------6-------------------10------------------------------|
D|-13--------6-------------------10------------------------------| x4
A|-11--------4-------------------8-------------------------------|
E|---------------------------------------------------------------|

PRECHORUS pt1

Your secret tattoo, the way you change moods
The songs that you sing when you're all alone

     Fm D# C# C#    slide up to     Fm Fm D# C# D#   
 
e|--X-------X-------X-----X--------------------X---------X--------X-----X----X-------------|
B|--9-------X-------X-----X--------------------9---------9--------X-----X----X-------------|
G|--10------8-------6-----6--------------------10--------10-------8-----6----8-------------|
D|--10------8-------6-----6--------------------10--------10-------8-----6----8-------------|
A|--8-------6-------4-----4--------------------8---------8--------6-----4----6-------------|
E|--X-------X-------X-----X--------------------X---------X--------X-----X----X-------------|

PRECHORUS pt2

Your favorite band, and the way that you dance

     Fm D# C# C# Fm        

e|--X------X--------X-------X--------X-------------|
B|--9------X--------X-------X--------9-------------|
G|--10-----8--------6-------6--------10------------|
D|--10-----8--------6-------4--------10------------|
A|--8------6--------4-------4--------8-------------|
E|--X------X--------X-------X--------X-------------|

PRECHORUS pt3

But, baby, baby


    Fm slide to D#   twice
e|---X----------X---------X--------X--------|
B|---9----------X---------9--------X--------|
G|---10---------8---------10-------8--------|
D|---10---------8---------10-------8--------|
A|---8----------6---------8--------6--------|
E|---X----------X---------X--------X--------|

CHORUS

 G# D# A# D# 
Does he know you can move it like that?
 G# D# A# 
Whoa-oh-oh-oh
 G# D# Cm D#    
Does he know you're out and I want you so bad?
 G# D# A# 
Whoa-oh-oh-oh
 G# D# D#/D G# D# Fm 
Tonight you're mine, baby.
 G# D# A# D# 
Does he know that you'll never go back?
 G# D# A# 
Whoa-oh-oh-oh
           G# D# Fm 
Does he know?

VERSE (same as verse above)

I catch your eye then you turn away
But there's no hiding the smile on your face
Inside and out, baby, head to toe
He's not around, girl, you let me know

PRECHORUS (same as prechorus above; pt1, 2, 3)

Your secret tattoo, the way you change moods
The songs that you sing when you're all alone
He knows how you dance in front of your friends
But, baby, baby

CHORUS (same as chorus above)

Does he know you can move it like that?
Whoa-oh-oh-oh
Does he know you're out and I want you so bad?
Whoa-oh-oh-oh
Tonight you're mine, baby.
Does he know that you'll never go back?
Whoa-oh-oh-oh
Does he know?

BRIDGE

He'll never know
 G# D# A# 
The way you lie when you look at me
 G# D# A# 
So keep trying but you know I see
 D# Cm A#<

Midnight Memories chords – One Direction V6

 I play this medley in my youtube video: http://www.youtube.com/watch?v=gqqnPEqlMVY, capo 1


 E 
Straight out of the plane to a new hotel

Just touched down, you could never tell

Big house party with a crowded kitchen

People talk shh but we don't listen
 A 
Tell me that I'm wrong but I do what I please
 C 
Way too many people in the Allison Lane
 D                                                               
Now I'm at the age when I know what I need, oh wow
         C G 
I don't care what people say when we're together
     D Em 
You know I wanna be the one who holds you when you sleep
         C G 
I just want it to be you and I forever
   D D 
I know you wanna leave so come on baby be with me so happily

 G Em G D/F# 
So your friends been telling me
                              Em                      
You've been sleeping with my sweater
              C                
And that you can't stop missing me
 G D/F# 
Bet my friends been telling you
                    Em 
I'm not doing much better
             C 
Because I'm missing half of me

 C 
Diana

Let me be the one to
 G 
Light a fire inside your life
 Am 
You can own me

You don't even know me
 F 
But I can feel you crying
 C 
Diana

Let me be the one to
 G 
Lift your heart up and

Save your life
 Am 
I don't think you even realize 
 F 
Baby you'll be saving mine


 Am G F 
If this room was burning
                  G 
I wouldn't even notice
        Am G F 
'cause you've been taking up my mind with your
                    F 
Little white lies, little white lies
 Am G F 
You say you're a good girl
                    G 
But I know you would, girl
        Am G F 
'cause you've been telling me all night with your
                    F 
Little white lies, little white lies
 G F G 
With your little white lies, little white lies

           C A# F C 
I said, "hey, it's alright, does it make you feel alive?

             C A# F C 
Don't look back, live your life, even if it's only for tonight"

 F G Am 
You and I
 C F 
We don't wanna be like them
 Em F 
We can make it till the end
 G 
Nothing can come between 
 F G Am 
You and I
 C F Em F 
Not even the Gods above can separate the two of us
 G 
No nothing can come between
 F G Am 
You and I
            F C G 
It was the best song ever
            F C G 
It was the best song ever 
            F C G 
It was the best song ever...

Story Of My Life Tabs by One Direction V3

 Story Of My Life

Capo 3

Chords Used Am F C G

Intro
     Am                                C        F       C       F
e|------------0----------------0--------------------------------------------|
B|-------1-----1--1-------1----1--1-------1------1------1------1------------|
G|---------2--------2-------2-------2-------0------0------0------0----------|  
D|-----2--------2-------2-------2--------2------3------2------3------------x2
A|---0-----------------0----------------3------3------3------3--------------|
E|--------------------------------------------------------------------------|

Verse 1

Am                                     C        F       C       F
e|------------0----------------0--------------------------------------------|
B|-------1-----1--1-------1----1--1-------1------1------1------1------------|
G|---------2--------2-------2-------2-------0------0------0------0----------|
D|-----2--------2-------2-------2--------2------3------2------3------------x2
A|---0-----------------0----------------3------3------3------3--------------|
E|--------------------------------------------------------------------------|

Am         F            C       F      C          F
e|------------0---------------0---------------------------------------------|
B|-------1-----1--1------1----1--1-------1------1------1------1-------------|
G|---------2--------2------2-------2------0------0------0------0------------|
D|-----2--------2-------3-------3-------2------3------2------3-------------x2
A|---0---------------------------------3------3------3------3---------------|
E|---------------------1----------------------------------------------------|
      C    G     Am                     G
e|-----------------0----0---------------------------------------------------|
B|-----1-----3------1----1---------------3-----3-----0---0------------------|
G|------0-----0------2----2---------------0-----0-----0---------------------|
D|----2--2--0--0--2----2-----x3-then----0--0--0--0--0--0--------------------|
A|---3-----------0----0-----------------------------------------------------|
E|---------3---------------------------3-----3-----3------------------------|

Chorus

     C                             F
e|---------0-------------0-----------0-----------0--------------------------|
B|------1----1--1-----1----1--1----1---1--1----1---1--1---------------------|
G|-------0-------0-----0-------0----2------2----2------2--------------------|
D|-----2--2---2------2--2---2-----3-----2-----3-----2-----------------------|
A|---3-------------3-------------3-----------3------------------------------|
E|--------------------------------------------------------------------------|

     Am                           C     F    C    F
e|---------0------------0---------------------------------------------------|
B|------1----1--1----1----1--1----1----1----1----1--------------------------|
G|-------2-------2----2-------2----0----0----0----0-------------------------|
D|-----2--2---2-----2--2---2-----2----3----2----3---------------------------|
A|---0-------------0------------3----3----3----3----------------------------|
E|--------------------------------------------------------------------------|

Repeat the chorus part

Verse 2 is the same as verse 1

Repeat the entire chorus(the Chorus part twice)

Bridge (single strums)
     Am  F   C       Am  F   C      C   F   Am  C
e|---0---1---X------0---1---X------X---1---0---0----------------------------|
B|---1---1---1------1---1---1------1---1---1---1----------------------------|
G|---2---2---0------2---2---0------0---2---2---0----------------------------|
D|---2---3---2------2---3---2------2---3---2---2----------------------------|
A|---0---3---3------0---3---3------3---3---0---3----------------------------|
E|-------1---3----------1---3------3---1-------3----------------------------|

End Chorus is the chorus part twice and end on C

Hope this helps peo

Through The Dark chords – One Direction V5

 This is my first Tab!

 C/G  :

E|--------------|
B|--1-----------|
G|--------------|
D|-----2--------|
A|--------3-----|
E|-----------3--|

Third finger on 6th string of the 3rd fret and pinky on 5th of the 3rd fret.

Intro: Hammer the G string and pull off quickly.



 G C/G 
You tell me that you said, "I lost your way"

You tell me that your tears are here to stay
                     G 
But I know you were only hiding

And I just wanna see you
                         C/G 
You tell me that you''re hurt, and you're in pain

And I can see it here, it's so in shake
                  G 
But I just wanna see your smile again

See you smile again


     D/F# 
But don't burn out
             Em 
Even if you scream and shout
              D/F# 
It will come back to you
             G 
And I'll be here for you


 G C/G G C/G G D/F# G 
Oh I will carry you over, fire and water for your love
 G C  / G G 
And I will hold you closer
 C  / G G D/F# G 
Hope your heart is strong enough
          Em C/G 
When the night is coming down on you
 Em D/F# G 
We will find a way through the dark


                     C/G 
I wish that I could take you to the stars

I'd never let you fall and break your heart
                  G 
And if you wanna cry or fall apart

I'll be there to hold you

                      C/G 
You tell me that you heard it's all in vain

But I can see your heart can love again
                G 
And I remember you laughing

So let's just laugh again


     D/F# 
But don't burn out
             Em 
Even if you scream and shout
              D/F# 
It will come back to you, back to you




 G C/G G C/G G D/F# G 
Oh I will carry you over, fire and water for your love
 G C/G G 
And I will hold you closer
 C/G G D/F# G 
Hope your heart is strong enough
          Em C/G 
When the night is coming down on you
 Em D/F# Em 
We will find a way through the dark

     D/F# G 
And you don't need
                   C  / G                          -Continue with  C/G -
You don't need to worry
     Em D/F# G Am 
And you will see it's easy to love
                     D 
I know you wanna be loved



 G C  / G G C / G G D/F# G 
Oh I will carry you over, fire and water for your love




 G C  / G G C  / G G D/F# G 
Oh I will carry you over, fire and water for your love
 G C  / G G 
And I will hold you closer
 C  / G G D/F# G 
Hope your heart is strong enough
          Em C/G 
When the night is coming down on you
 Em D/F# G 
We will find a way through the dark



 G C  / G G C / G</

Why Dont We Go There chords – One Direction V2

 Capo 3

[Harry]

 C 
I know you wanna, I know you 
 F Am 
wanna take it slo-o-ow
 C 
But think about all the 
 F Am 
places we could go-o-o
              F 
If you give in tonight, just 
         Am 
let me set you free
                 F 
We'll touch the other side, 
           Am .        G 
just give me the key

[Zayn]
                   C 
'Cause we got all night, and 
             G 
we're going nowhere
               Am 
Why don't you stay? Why don't 
    F .        G 
we go there?
              C 
Let's take a ride
            G 
Out in the cold air
           Am 
I know the way
              F .        G 
Why don't you go there?
   C 
With me

[Liam]
                       Am 
Say the word, say the word, 
                F 
but don't say no-o-o
 C .                F 
Sky dive you and I with just 
        Am 
these clo-o-o-thes
              F 
The secret's safe with me, 
                   An 
just don't write a time or place
           F 
'Cause anyone could see, we 
       Am .     G 
do it anyways

[All]
                   C 
'Cause we got all night, 
             G 
we're going nowhere
               Am 
Why don't you stay? Why don't 
    F .       G 
we go there?
               C 
Let's take a ride
             G      
Out in the cold air
            Am 
I know the way
               F .     G 
Why don't you go there?
      C 
With me

[Niall]
 F 
Hey, I don't want you to be 
                  Am 
the one that got away

I wanna get addicted to you 
 F 
(Yeah)
You're rushing through my mind
                  Am 
I wanna feel the high
            G 
I wanna be addicted, don't say
 F .    Am .    G 
no-o-o-o-o-o
Just let
 F .  Am .  G 
go-o-o-o-o

[Louis]
                  C 
'Cause we got all night and 
              G 
we're going no where
               Am 
Why don't you stay? Why don't 
    F .      G 
we go there?

[All]
              C 
Let's take a ride (Let's take a ride)
            G 
Out in the cold air
            Am 
I know the way (I know the way)
               F .       G 
Why don't you go there
 C 
With me
 G .        Am 
(With me with me)

[Zayn]
 F 
Why don't you go there?
 C 
With me

Little Things Tabs by One Direction V7

 Chords used:

G - 320033
C - 032010
Em7 - 022030
D/F# - 200230
D  - 000232
Em - 022000



No Capo


Intro

    G                               C
e|------------------------------------------------------------------|
B|------3-----3---------3-----3---------3-----3---------3-----3-----|
G|------0-----0---0-----0-----0---------0-----0---0-----0-----0---0-|
D|----0-----0---0-----0-----0---------2-----2---2-----2-----2---2---|
A|------------------------------0-2-3-----3---------3-----3---------|
E|--3-----3---------3-----3-----------------------------------------|


    Em7             D/F#            C        D       G
  -----------------------------------------------2-------------------|
  ------3-----3---------3-----3----------3-------3-------3-----3-----|
  ------0-----0---0-----2-----2---2------0-----2---2-----0-----0---0-|
  ----2-----2---2-----0-----0---0------2---2-0---------0-----0---0---|
  ----------------------------------3--------------------------------|
  --0-----0---------2-----2--------------------------3-----3---------|



Verse 1

    G                               C
e|------------------------------------------------------------------|
B|------3-----3---------3-----3---------3-----3---------3-----3-----|
G|------0-----0---0-----0-----0---------0-----0---0-----0-----0---0-|
D|----0-----0---0-----0-----0---------2-----2---2-----2-----2---2---|
A|------------------------------0-2-3-----3---------3-----3---------|
E|--3-----3---------3-----3-----------------------------------------|


    Em7             D/F#            C        D       G
  -----------------------------------------------2-------------------|
  ------3-----3---------3-----3----------3-------3-------3-----3-----|
  ------0-----0---0-----2-----2---2------0-----2---2-----0-----0---0-| x2
  ----2-----2---2-----0-----0---0------2---2-0---------0-----0---0---|
  ----------------------------------3--------------------------------|
  --0-----0---------2-----2--------------------------3-----3---------|

     G
Your hand fits in mine like it's made just for me
    C
But bear this in mind it was meant to be
        Em7                          D/F#
And I'm joining up the dots with the freckles on your cheeks
       C         D        G
And it all makes sense to me


  G
I know you've never loved the crinkles by your eyes
         C
When you smile you've never loved your stomach or your thighs
    Em7                         D/F#
The dimples in your back at the bottom of your spine
         C         D      G
But I'll love them endlessly



Chorus

   Am7             C               Em              D
e|-----------------------------------------------------2-3-2-------|
B|-----1-----1---------1-----1---------0-----0---------3-3-3-3-----|
G|-----0-----0---0-----0-----0---0-----0-----0---0---2---------2---| x2
D|---2-----2---2-----2-----2---2-----2-----2---2---0-------------0-|
A|-0-----0---------3-----3-----------------------------------------|
E|---------------------------------0-----0-------------------------|

Am7                       C            Em        D
 I won't let these little things slip, out of my mouth
         Am7      C            Em            D
But if I do, it's you, Oh it's you, They add up to

   C               C       G
e|-----------------0-------------------------------|
B|-----1-----1-----1-----------3-----3-----3-------|
G|-----0-----0---0-0-----------0-----0-----0-------|
D|---2-----2---2---2---------0-----0-----0---------|
A|-3-----3---------3-------------------------------|
E|-------------------------3-----3-----3-----------|

       C                  C -once          G
I'm in love with you, And all these little things



Verse 2

    G                               C
e|------------------------------------------------------------------|
B|------3-----3---------3-----3---------3-----3---------3-----3-----|
G|------0-----0--

Happily chords – One Direction V5

 Hello People! , please rate! Thanks!

I usually play it with no capo, but it depends on your voice!

- - - - - - - - - - - - - - - - - - - - - - - - - - -
- - - - - - - - - - - - - - - - - - - - - - - - - - - 
- - - - - - - - - - - - - - - - - - - - - - - - - - -
- - - - - - - - - - - - - - - - - - - - - - - - - - -
- - 4 - - - 4 - - 4 - - 5 - - 0 - - - 0 - - 0 - - 0 -
 5 - - - 5 - - 5 - - 7 - - 2 - - - 2 - - 2 - - 2 - -- 

So, as you see, it is really easy to play.
Basically, you can play this through the verse too.

The Chords for Chorus are: 

 D : xx0232
 A : x02220
 E : 022100
 


          D A 
I don't care what people say when we're together
 E E 
You know I wanna be the one to hold you when you sleep.
        D A 
I just want it to be you and I forever
 E E *
I know you wanna leave. So c'mon baby be with me
       (Intro again)
So happily.

Then the bridge:

Same Chords as Chorus + F#m: (Bar Chord) 244222 

 A 
Oh, oh, oh, oh,
 E 
Oh, oh, oh, oh.
 F#m D 
We're on fire now.
 A 
Oh, oh, oh, oh, 
 E 
oh, oh, oh, oh.
 F#m D 
We're on fire now (we're on fire)
 A 
Oh, oh, oh, oh, 
 E 
oh, oh, oh, oh.
 F#m D *
We're on fire now.


And then the chorus twice.

The song is really easy, I really love to listen - play - and sing!

Little Black Dress chords – One Direction V2

 Little Black Dress – One Direction
Capo 2

[Intro]

e|----2-2-0-0-0-0----------2-2-0-0-0-0----3-----------3---------|
B|----3-3-2-2-2-2-3--3-----3-3-2-2-2-2-3--3---2b3r2---3—2b3r2---|
G|----2-2-2-2-2-2-4--4-----2-2-2-2-2-2-4--0---------2-0-------2-|
D|-0--------------0--0---0-------------0--0-----------0---------|
A|----------------------------------------x-----------x---------|
E|----------------------------------------3-----------3---------|

[Verse 1]

D(8) (or intro)
Little black dress, just walked into the room
 D (8)                                      G (8)
Makin' heads turn, can't stop looking at you - it's all right,
It's all right It's all right you know

[Verse 2]

D(8)  (or intro)
Little black dress Did you come here alone?
 D (8)
It's too late It's too late It's too late to go home
 G (8)
It's all right It's all right It's all right you know
 G (8)
It's all right It's all right It's all right you know

CHORUS:
 A D D/F# (2)        G (4)
I wanna see the way you move for me baby
 A D D/F# (2)        G (4)
I wanna see the way you move for me baby
 A D D/F# (2)          G (8)
I wanna see the way you move for me

[Verse 3 & 4]

 D (8)
Little black dress Who you doin' it for?
 D (8)
Little black dress I can't take anymore
 G (8)
It's not right It's not right It's not right you know

 D (8)
Little black dress What's your favourite song?
Little black dress I won't do you no harm
 G (8)
It's all right It's all right It's all right you know
 G (8)
It's all right It's all right Cause I'll take you home

CHORUS:

 D (16)   G (16)

CHORUS X2

[Intro – repeat last G with bend]


(requested by Brittany from OLSHCK)

Alive chords – One Direction

 I don't think this is how they play it on their album. This is completely done by 
ear so sorry if I made any mistakes! The chords won't line up with the words so I 
matched them as best I could.. The chords are pretty flexible so you'll be able to 
play them in whatever way sounds best to you. :)
 @KianaTheFangirl


 D C G D 
My mother told me I should go and get some therapy
 D C G D    
I asked the doctor can you find out what is wrong with me
 D C G D 
I don't know why I wanna be with every girl I meet
 D C   
I can't control it
        G D 
Yeah, I know it's taking over me
 Bm 
I'm going crazy
 Bm 
Can't contain it
 G 
So tell me just what I should do
          
               D C 
She said, hey, it's alright
            G D 
Does it make you feel alive?
                 D       
Don't look back
               C 
Live your life
         G D 
Even if it's only for tonight
               D C 
She said, hey, it's alright
        G D 
If it makes you feel alive

 D C G D 
Went to a party just after the doctor talked to me
 D C G D 
I met a girl I took her straight up to the balcony
 D C G D 
I whispered something in her ear that I just can't repeat
 D C 
She said okay
       G D 
But she was worried what her friends would think
 Bm 
I'm going crazy
 Bm 
Can't contain it
 G 
So tell me just what I should do

           D C 
She said, hey, it's alright
           G D 
Does it make you feel alive?
                  D   
Don't look back
                 C 
Live your life
         G D 
Even if it's only for tonight
                D C 
She said, hey, it's alright
       G C 
If it makes you feel alive
          D C  
I said, hey, it's alright
            G D 
Does it make you feel alive?
                 D 
Don't look back
                C 
Live your life
        G D 
Even if it's only for tonight
           D C 
I said, hey, it's alright
       G D 
If it makes you feel alive

 Bm D A             
We got to live before we get older
 Bm                 
Do what we like
            D A 
We got nothing to lose
 Bm D A Bm 
Shake off the weight of the world from your shoulders
            D A 
We got nothing to prove

           D C 
I said, hey, it's alright
             G D 
Does it make you feel alive?
                  D  
Don't look back
                C 
Live your life
         G D 
Even if it's only for tonight

           D C 
I said, hey, it's alright
            G D  
Does it make you feel alive?
                 D  
Don't look back
               C 
Live your life
         G D 
E