Tag: disco

High Hopes piano chords by Panic! At the Disco

[Intro]
Bb   F   Dm   C
Bb   F   Dm   Am

[Chorus]
            Bb                     F
Had to have high, high hopes for a living
                 Dm                           C
Shooting for the stars when I couldn't make a killing
              Bb                      F
Didn't have a dime but I always had a vision
           Dm         Am
Always had high, high hopes

            Bb                     F
Had to have high, high hopes for a living
            Dm                     C
Didn't know how but I always had a feeling
            Bb                F
I was gonna be that one in a million
           Dm         Am
Always had high, high hopes

[Verse 1]
     Bb
Mama said
F
Fulfill the prophecy
Dm
Be something greater
C
Go make a legacy
Bb
Manifest destiny
F
Back in the days
          Dm          Am
We wanted everything, wanted everything

     Bb
Mama said
F
Burn your biographies
Dm
Rewrite your history
C
Light up your wildest dreams
Bb                F
Museum victories, everyday
          Dm          Am
We wanted everything, wanted everything

[Pre-Chorus]
    F               A           Dm         Bbm
Mama said don't give up, it's a little complicated
         F          A             Dm              Bbm
All tied up, no more love and I'd hate to see you waiting

[Chorus]
            Bb                      F
Had to have high, high hopes for a living
                 Dm                           C
Shooting for the stars when I couldn't make a killing
              Bb                      F
Didn't have a dime but I always had a vision
           Dm         Am
Always had high, high hopes

            Bb                     F
Had to have high, high hopes for a living
            Dm                     C
Didn't know how but I always had a feeling
            Bb               F
I was gonna be that one in a million
           Dm         Am
Always had high, high hopes

[Verse 2]
     Bb
Mama said
F
It's uphill for oddities
Dm
The stranger crusaders
C
Ain't ever wannabes
Bb
The weird and the novelties
F
Don't ever change
          Dm                 Am
We wanted everything, wanted everything

Bb             F
Stay up on that rise
                Dm                  C
Stay up on that rise and never come down
Bb              F
Stay up on that rise
                Dm                 
Stay up on that rise and never come down

[Pre-Chorus]
F                    A          Dm           Bbm
Mama said don't give up, it's a little complicated
         F             A            Dm            Bbm
All tied up, no more love and I'd hate to see you waiting
             F                        A                       Dm   Bbm
They say it's all been done but they haven't seen the best of me
         F            A                            Dm    Bbm
So I got one more run and it's gonna be a sight to see

[Chorus]
            Bb                     F
Had to have high, high hopes for a living
                 Dm                           C
Shooting for the stars when I couldn't make a killing
              Bb                      F
Didn't have a dime but I always had a vision
           Dm         Am
Always had high, high hopes

            Bb                     F
Had to have high, high hopes for a living
            Dm                     C
Didn't know how but I always had a feeling
            Bb               F
I was gonna be that one in a million
           Dm         Am
Always had high, high hopes

            Bb                     F
Had to have high, high hopes for a living
                 Dm                           C
Shooting for the stars when I couldn't make a killing
              Bb                      F
Didn't have a dime but I always had a vision
           Dm         Am
Always had high, high hopes

            Bb                     F
Had to have high, high hopes for a living
            Dm                     C
Didn't know how but I always had a feeling
            Bb               F
I was gonna be that one in a million
           Dm         Am
Always had high, high hopes

Dying In La piano chords by Panic! At the Disco

[Intro]
Fm7  F  C  Em7

[Verse 1]
    Fm7                    F
The moment you arrived they built you up
    C                   Em7
The sun was in your eyes
               Fm7 F C  Em7
You couldn't believe it
Fm7               F
Riches all around, you're walking
C                       Em7
Stars are on the ground
               Fm7 F C  Em7
You start to believe it

[Pre-Chorus]
Am                   Em7            C                  F
Every face along the boulevard is a dreamer just like you
Am                       Em7                C                   F
You looked at death in a tarot card and you saw what you had to do

[Chorus]
    C      Am        F
But nobody knows you now
            Em       G
When you're dying in LA
    C      Am       F
And nobody owes you now
            Em       G
When you're dying in LA
            C       Am Em
When you're dying in LA
            C       Am Em
When you're dying in LA
    C          C          C
The power, the power, the power
       F          F          F
Oh the power, the power, the power
    C    Am    Em
Of LA

[Interlude]
C  Am  Em

[Verse 2]
Fm7              F
Nights at the chateau
                C              Em7
Trapped in your sunset bungalow
               Fm7 F C  Em7
You couldn't escape it, yeah
Fm7          F
Drink of paradise
                 C                Em7
They told you to put your blood on ice
                 Fm7 F C  Em7
You're not gonna make it

[Pre-Chorus]
Am                   Em7            C                 F
Every face along the boulevard is a dreamer just like you
Am                       Em7                C                   F
You looked at death in a tarot card and you saw what you had to do

[Chorus]
    C      Am        F
But nobody knows you now
            Em       G
When you're dying in LA
    C      Am       F
And nobody owes you now
            Em       G
When you're dying in LA
            C       Am Em
When you're dying in LA
            C       Am Em
When you're dying in LA
    C          C          C
The power, the power, the power
       F          F          F
Oh the power, the power, the power
    C    Am   Em
Of LA

[Outro]
C    Am    Em
C    Am    Em
C    Am    Em
F          C

Cant See Through It Tabs – Disco Inferno

 Disco Inferno
Can't See Through It
Technicolour 

: Saviano P.



Intro/Verse: 
               C
e|-0-0-0--||---0-------0-0-0--|
B|-1-1/3--||---1-------1-1/3--|
G|-0-0-0--||---0-(x12)-0-0-0--| 
D|-2-2/4--||---2-------2-2/4--| 
A|-3-0-0--||---3-------0-0-0--|
E|--------||------------------|

 then: 
e|-0-0-0----0------|
B|-1-1/3----1------|
G|-0-0-0----0------| 
D|-2-2/4----2------|
A|-3-0-0----3------|
E|-----------------|

e|----------------------------|
B|-0-1-3-1--0--1--0--1--0-----|
G|-0-0-0-0--0--0--0--0--0---0-| In this part you can also just play the notes on the B string and the 
D|-2-2-2-2--2--2--2--2--2-----| two notes at the end with a 2nd guitar strumming a C chord
A|-3-3-3-3--3--3--3--3--3-3---|
E|----------------------------|

The entire song is just these three parts with C almost constantly being strummed

The End Of All Things Tabs – Panic! At The Disco Vsion 3

 : jcameronp
Tuning: standard, capo on 1 (notes relative to capo, so fret 7 with capo on 1 is actually played at fret 8)


Intro:

(make sure to emphasize the high e of every chord)

e|-0~-3-5-7~-2~-0~-3-5--10~-5~-3~-3-5-7~-2~-0~-3-5-10-5-3~-------------------|
B|-0~-----0~-3~-0~------7~--x~-0~-----0~-3~-0~----------0~-------------------|
G|-0~-----0~-2~-0~------7~--4~-0~-----0~-2~-0~----------0~-------------------|
D|-2~-----5~-0~-2~------7~--4~-2~-----5~-0~-2~----------2~-------------------|
A|-3~-----7~----3~------9~--5~-3~-----7~----3~----------3~-------------------|
E|---------------------------------------------------------------------------|

Verse:

Whether near or far...

e|-3-5-7~-2~-0~-3-5-10~-5~-3~-3-5-7~-2~-3-5-7~-7-7-5~------------------------|
B|-----0~-3~-0~-----7~--x~-0~-----0~-3~-----0~-----x~------------------------|
G|-----0~-2~-0~-----7~--4~-0~-----0~-2~-----0~-----4~------------------------|
D|-----5~-0~-2~-----7~--4~-2~-----5~-0~-----5~-----4~------------------------|
A|-----7~----3~-----9~--5~-3~-----7~--------7~-----5~------------------------|
E|---------------------------------------------------------------------------|

Prechorus:

Lay us down...

e|-3-----5-------7---------5-5-7---------5-----------------------------------|
B|-1-----3-------8---------3-3-5---------3-----------------------------------|
G|-0-----4-----------------4-4-4---------4-----------------------------------|
D|---------------------------------------------------------------------------|
A|---------------------------------------------------------------------------|
E|---0-0---0-0-0---0-0-0-0-------0-0-0-0---0-0-0-0---------------------------|

e|-3-----5-------7---------5-3-7---------5-----------------------------------|
B|-1-----3-------8---------3-1-5---------3-----------------------------------|
G|-0-----4-----------------4-0-4---------4-----------------------------------|
D|---------------------------------------------------------------------------|
A|---------------------------------------------------------------------------|
E|---0-0---0-0-0---0-0-0-0-------0-0-0-0---0-0-0-0---------------------------|

Guitar 2 (optional along with piano)

e|-16-18-20-18-18-20-18--16-18-20-18-16-23-----------------------------------|
B|---------------------------------------------------------------------------|
G|---------------------------------------------------------------------------|
D|---------------------------------------------------------------------------|
A|---------------------------------------------------------------------------|
E|---------------------------------------------------------------------------|

Chorus:

e|-23-22-18-23-22-18-23-22-18-20---------------------------------------------|
B|---------------------------------------------------------------------------|
G|---------------------------------------------------------------------------|
D|---------------------------------------------------------------------------|
A|---------------------------------------------------------------------------|
E|---------------------------------------------------------------------------|

or if your guitar doesn't have that many frets you can play

e|-11-10----11-10----11-10---------------------------------------------------|
B|-------11-------11-------11-13---------------------------------------------|
G|---------------------------------------------------------------------------|
D|---------------------------------------------------------------------------|
A|---------------------------------------------------------------------------|
E|---------------------------------------------------------------------------|

e|---------------------------------------------------------------------------|
B|---------------------------------------------------------------------------|
G|-0-2-4---------------------------------------------------------------------|
D|-----5-------4-------------------------------------------------------

Dont Threaten Me With A Good Time solo Tabs – Panic! At The Disco Vsion 2

 -------------------------------------------------------------------------------
               DON'T THREATEN ME WITH A GOOD TIME - Panic! At the Disco
-------------------------------------------------------------------------------
: thanic
 ethanrocketman2
Note:  so it might not be 10/10...
Tuning: Standard

Intro riff. 

e|---------------------------------------------------------------------------|
B|---------------------------------------------------------------------------|
G|----------------------6----------------------------------------------------|
D|--------------7676-6------7----------7676--------------------------7676-6--|
A|-----6-76---------------------76--------------------------6-76-------------|
E|--9--------9-----------------------9-------------------9--------9----------|

Rest of the parts with riff.

e|---------------------------------------------------------------------------|
B|---------------------------------------------------------------------------|
G|---------------------------------------------------------------------------|
D|--------------7676-6--------------7676-----------------------------------------|
A|------7-76--------------6-76-----------------------------------------------|
E|--9--------9---------9---------9------------------------------------------|

Disco Inferno Tabs – The Trammps

 DISCO INFERNO

As recorded by The Trammps
(From the 1976 Album DISCO INFERNO)

Words and Music by Leroy Green & Tyrone G. Kersey

 Slowhand


Gtr I (E A D G B E) - 'Clean Electric Guitar'
Gtr II (E A D G B E) - 'Distorted Electric Guitar'
Gtr III (E A D G B E) - 'Horns'


 Intro
  Q=132
  N.C.
 4/4
  Gtr I (Clean El. Gtr.)
  W          H    Q  E E   +Q   E E E E E E
|----------|-------------|------------------|
|----------|-------------|------------------|
|----------|-------------|------------------|
|----------|-------------|------5-----3-----|
|----------|-----------3-|-(3)----3-6-----3-|
|----------|-------------|--------------6---|


  +E  E E E E E E E   +E  E E E E E E E
|-------------------|-------------------|
|-------------------|-------------------|
|-------------------|-------------------|
|-------5-------3---|-------5-----3-----|
|-(3)-3---3-6-6---3-|-(3)-3---3-6-----3-|
|-------------------|---------------6---|


  +E  E E E E E E E     +E  E E E E E E E
|-------------------||---------------------|
|-------------------||o--------------------|
|-------------------||---------------------|
|-------------------||--------5-----3------|
|-(3)-3-0-0-1-1-2-3-||o-(3)-3---3-6-----3--|
|-------------------||----------------6----|


  +E  E E E E E E E   +E  E E E E E E E
|-------------------|-------------------|
|-------------------|-------------------|
|-------------------|-------------------|
|-------5-------3---|-------5-----3-----|
|-(3)-3---3-6-6---3-|-(3)-3---3-6-----3-|
|-------------------|---------------6---|


  +E  E E E E E E E     +E  E E E E E E E
|--------------------||--------------------|
|-------------------o||--------------------|
|--------------------||--------------------|
|--------------------||-------5-----3------|
|-(3)-3-0-0-1-1-2-3-o||-(3)-3---3-6-----3--|
|--------------------||---------------6----|


                                                         Chorus
                                                     F/A  F/A  C/GF/A  Bb
                                                     Gtrs I, III (Horns arr. for Gtr.)
  +E  E E E E E E E   +E  E E E E E E E   +H.      E E    +Q   Q  Q  E E
|-------------------|-------------------|--------------||----------------|
|-------------------|-------------------|------------6-||-(6)--5--6----6-|
|-------------------|-------------------|------------5-||-(5)--5--5----7-|
|-------5-------3---|-------5-----3---5-|-(5)--------7-||-(7)--5--7----8-|
|-(3)-3---3-6-6---3-|-(3)-3---3-6-----3-|-(3)----------||----------------|
|-------------------|---------------6---|--------------||----------------|


       F/AGm   C/G      F/A  C/G          F/A  C/G F/A      C/GF/A  Bb
  +Q   Q  Q  E E   +Q   q  E E E E   +Q   q  E E E E   +Q   Q  Q  E E
|----------------|-----------------|-----------------|----------------|
|-(6)--6--3----5-|-(5)--6--6-5---5-|-(5)--6--6-5---6-|-(6)--5--6----6-|
|-(7)--5--3----5-|-(5)--5--5-5---5-|-(5)--5--5-5---5-|-(5)--5--5----7-|
|-(8)--7--5----5-|-(5)--7--7-5---5-|-(5)--7--7-5---7-|-(7)--5--7----8-|
|----------------|-----------------|-----------------|----------------|
|----------------|-----------------|-----------------|----------------|


                                                        1st - 3rd Verses
                                                     $
       F/AGm   C/G      F/A  C/G             BbF/A       N.C.
                                                   Gtr I
  +Q   Q  Q  E E   +Q   q  E E E E   +Q   Q  E E E E     +Q   E E E E E E
|----------------|-----------------|-----------------||-------------------|
|-(6)--6--3----5-|-(5)--6--6-5---5-|-(5)-----6-6-----||o------------------|
|-(7)--5--3----5-|-(5)--5--5-5---5-|-(5)-----7-5-----||-------------------|
|-(8)--7--5----5-|-(5)--7--7-5---5-|-(5)-----8-7-----||-------5-----3-----|
|----------------|-----------------|---------------3-||o-(3)----3-6-----3-|
|----------------|-----------------|-----------------||---------------6---|


  +E  E E E

Nicotine intro Tabs – Panic At The Disco V2

 -------------------------------------------------------------------------------
                        NICOTINE    Panic! At The Disco
-------------------------------------------------------------------------------
: Perri Freeman McKeon 
 perrifreema1

Tuning: Standard

e|---------------------------------------------------------------------------|
B|-------6-------------------------------------------------------------------|
G|-----5---5---8-5------------------------8----------------------------------|
D|-3-6-------------6-6-5-------8-5------5---8-5------------------------------|
A|---------------------------6----6---6--------------------------------------|
E|-------------------------8-------------------------------------------------|



************************************

I hope this was helpful! Sorry if it's not accurate!
************************************

Nicotine intro Tabs – Panic At The Disco

 -------------------------------------------------------------------------------
                             Nicotine - Panic! At The Disco
-------------------------------------------------------------------------------
(I did tab this by ear so sorry for any mistakes, although I think it sounds right.)

Intro/Main Riff

Tuning: Standard (EADGBe)

e|--------------------------------------------------------------------------|
B|--------------------------------------------------------------------------|
G|----------10---8----------------------------------------------------------|
D|--------10--10--10----------------------------13-8------------------------|
A|---8-11-----------11-11-10------13-10------10-------10--------------------|
E|---------------------------8-11------11--11-------------------------------|

Heavy Disco Tabs – The Bennies

 -------------------------------------------------------------------------------
                             HEAVY DISCO - THE BENNIES
-------------------------------------------------------------------------------
: Declan

Tuning: Standard EADGBe

Intro/Main Riff
e|---------------------------------------------------------------------------|
B|---------------------------------------------------------------------------|
G|---------7-7---------------------------------7-7-----7-7-9-9-9-9-9-9-------|
D|-----9-9-----9-9-7-7-------7-7-----------9-9-----9-9-----------------------|
A|-7-7-----------------10-10-----10-10-7-7-----------------------------------|
E|---------------------------------------------------------------------------|

e|---------------------------------------------------------------------------|
B|---------------------------------------------------------------------------|
G|---------7-7---------------------------------7-7---7-9-9-9-9-9-9-9-9-------|
D|-----9-9-----9-9-7-7-------7-7-----------9-9-----9-------------------------|
A|-7-7-----------------10-10-----10-10-7-7-----------------------------------|
E|---------------------------------------------------------------------------|

Chorus
e|---------------------------------------------------------------------------|
B|---------------------------------------------------------------------------|
G|-9-9-9-9-9-9-9-9-------------------------9-9-9-9-9-9-9-9-------------------|
D|-9-9-9-9-9-9-9-9-12-12-12-12-12-12-12-12-9-9-9-9-9-9-9-9-12-12-12-12-12-12-|
A|-7-7-7-7-7-7-7-7-12-12-12-12-12-12-12-12-7-7-7-7-7-7-7-7-12-12-12-12-12-12-|
E|-0-0-0-0-0-0-0-0-10-10-10-10-10-10-10-10-0-0-0-0-0-0-0-0-10-10-10-10-10-10-|

e|------------------------------------------------------------------------------|
B|------------------------------------------------------------------------------|
G|------------------------------------------------------------------------------|
D|-12-12-10-10-10-10-10-10-10-10-12-12-12-12-12-12-12-12-10-10-10-10-10-10-10-10|
A|-12-12-10-10-10-10-10-10-10-10-12-12-12-12-12-12-12-12-10-10-10-10-10-10-10-10|
E|-10-10-8--8--8--8--8--8--8--8--10-10-10-10-10-10-10-10-8--8--8--8--8--8--8--8-|

e|---------------------------------------------------------------------------|
B|---------------------------------------------------------------------------|
G|---------------------------------------------------------------------------|
D|-12-12-12-12-12-12-12-12---------------------------------------------------|
A|-12-12-12-12-12-12-12-12---------------------------------------------------|
E|-10-10-10-10-10-10-10-10---------------------------------------------------| 

Verse (In the second part of Verse 1, you play these same chords, but to a ska beat)
e|---------------------------------------------------------------------------|
B|---------------------------------------------------------------------------|
G|-9-9-9----------9-9-9------------------------------------------------------|
D|-9-9-9----------9-9-9----------9-9-9-----10-10-10-----9-9-9-----12-12-12---|
A|-7-7-7----------7-7-7----------9-9-9-----10-10-10-----9-9-9-----12-12-12---|
E|-0-0-0----------0-0-0----------7-7-7-----8--8--8------7-7-7-----10-10-10---| 

Chorus
e|---------------------------------------------------------------------------|
B|---------------------------------------------------------------------------|
G|-9-9-9-9-9-9-9-9-------------------------9-9-9-9-9-9-9-9-------------------|
D|-9-9-9-9-9-9-9-9-12-12-12-12-12-12-12-12-9-9-9-9-9-9-9-9-12-12-12-12-12-12-|
A|-7-7-7-7-7-7-7-7-12-12-12-12-12-12-12-12-7-7-7-7-7-7-7-7-12-12-12-12-12-12-|
E|-0-0-0-0-0-0-0-0-10-10-10-10-10-10-10-10-0-0-0-0-0-0-0-0-10-10-10-10-10-10-|

e|------------------------------------------------------------------------------|
B|------------------------------------------------------------------------------|
G|------------------------------------------------------------------------------|
D|-12-12-10-10-10-10-10-10-

After The Disco chords – Broken Bells

 After the Disco Chords
Broken Bells

[Intro]
 Bm A E Bm 
After your faith has let you down
               A E 
I know you'll want to run around
                Bm 
And follow the crowd into the night
               A E Bm 
But after the disco all of the shine just faded away
                          A E 
Oh oh oh oh, do what you want, do what you will
                    Bm 
Don't tell me it's not our time

[Chorus]
           B 
Cause I'm waiting here much too long and
 G A                
Don't assume, that I need your 
 B 
love. The chill of night has got you dancing away and I'm
 G A 
Not the dreamer, or the dream you're
 Em 
Out there looking for
 Bm A E 
How did I get in this winding maze of love?
             Bm 
And there's something wrong and it's sending you
 A E 
round and round til we go nowhere

[Instrumental]
 Bm A E Bm 
I see the ashes on the ground
            A E 
I know the world is burning down
               Bm 
And under the cold and empty moon
               A E Bm 
But after the disco all of the shine just faded away
                          A E 
Oh oh oh oh, do what you want, do what you will
                    Bm 
Don't tell me it's not our time

[Repeat chorus]

Cant Fight Against The Youth chords – Panic At The Disco

 PANIC! AT THE DISCO
Can't Fight Against The Youth
Standard



Verse 1:
 B F# C# D#min 
Moving forward,  using all my breath,
 B F# C# D#min 
"I'll make it up to you," is all I should have said.
 B F# C# D#min 
Mom and Dad, looked me right between the eyes,
        B F# C# 
Then I awoke, a blinding light.



Chorus:
-                        E 
Can't fight against the youth! (Hey!)
      B F# 
Woah-oh-oh-oh-oh-oh
       D#min C# E 
Can't fight against the youth! (Hey!)
        B F# 
You'll never take us alive! 
       D#min C# E 
Can't fight against the youth! (Hey!)
      B F# 
Woah-oh-oh-oh-oh-oh
                         E 
Can't fight against the youth! (Hey!)
        B F# 
You'll never take us alive! 
-
Can't fight against the youth!


Verse 2:
 B F# C# D#min 
In December, 1995,
 B F# C# D#min       
Though I had the thoughts, no one ever heard them right
 B F# C# D#min 
Fought resistance nearly my entire life,
 B F# C# 
Then I awoke, a blinding light.



PLAY CHORUS


Bridge:
 B C# D#min            
   (Never gonna take us, never gonna break us.)
 B C# D#min 
   (Futures open wide, and the past is all behind us.)
 B C# D#min 
   (Never gonna take us, never gonna break us.)


PLAY CHORUS TWICE!


Pretty sure thats it :P hope it helps

Trade Mistakes chords – Panic At The Disco V2

 Panic! at the Disco
Trade Mistakes
Standard


Violin & String start

(Actually arpeggios)

 G# A# D# 


(verse)
 Cmin G# A# 
Placing a smile at the perfect event,
               D# Cmin 
Gracing your skin with the side of my hand.
             G# A# 
If I ever leave I could learn to miss you
                   D# Cmin 
But "Sentimental Boy" is my nom de plume

 G# A# Gmin A#         
Let me save you, hold this rope



(Chorus)
 Cmin G# D# 
I may never sleep tonight,
 Cmin G# D# 
As long as you're still burning bright.
 Cmin                  
If I could trade mistakes for sheep,
 G# D# 
Count me away before you sleep.
-
I'll stay awake till I trade my mistakes
 G# D# 
Or they fade away



Verse - (arpeggio) and A#Maj arpeggio in background

 G# A# D# Cmin G# A# 
I feel marooned in this body
                D# Cmin 
Deserted, my organs can go on without me.
           G# A# 
You can't fly these wings.
            D# Cmin 
You can't sleep in this box with me.

 G# A# Gmin A# 
Let me save you, hold this rope



(Chorus)
 Cmin G# D# 
I may never sleep tonight,
 Cmin G# D# 
As long as you're still burning bright.
 Cmin                  
If I could trade mistakes for sheep,
 G# D# 
Count me away before you sleep.
-
I'll stay awake till I trade my mistakes
 G# D# 
Or they fade away



Bridge

     Gmin G# 
So, let me save you
 A# D# 
hold this rope and ill pull you in
       Gmin G# 
Cause I am an anchor
 A# D# 
save her or Feel it sinking in
 Gmin G# A# D# 
Let me save you, hold this rope
 Gmin G# A# D# 
I am an anchor, sinking her


 G# A# D# Cmin G# A# D# Cmin 
I may never sleep tonight,
    G# A# D# Cmin 
As long as you're still burning bright.



Chorus - different patterns

    G# A# 
If I could trade mistakes for sheep,
 D# Cmin 
Count me away before you sleep.
-
I'll stay awake till I trade my mistakes
 D# 
Or they fade away





Done. :) 
ill do Chorus lead later if I canbf