Tag: dispute

A Broken Jar Tabs – La Dispute V2

 -------------------------------------------------------------------------------
                             A BROKEN JAR - La Dispute
-------------------------------------------------------------------------------
: ICantEven


Tuning: E Standard 

This is the studio version, the version on wildlife is similar but in a different key. I'm almost 100% that 
this is correct aside from the number of times he hits each chord as he switches it up a bit and you're going 
to have to listen to the track for things like rhythm. Here's the video I went off of
https://www.youtube.com/watch?v=OlETyWy3lyw .

e|----------------------------------------------------------------------------------------------------|
B|--8--8--8--8--10--8--10---10--10--10--10--10--10----------------------------------------------------|
G|--9--9--9--9--9---9--9----9---9---9---9---9---9----9---9---9---9---9---9---9---9---9---9---9---9----|
D|--7--7--7--7--7---7--7----7---7---7---7---7---7----7---7---7---7---7---7---7---7---7---7---7---7----|
A|--7--7--7--7--7---7--7----8---8---8---8---8---8----8---8---8---8---8---8---8---8---8---8---8---8----|
E|---------------------------------------------------10--10--10--10--10--10--10--10--10--10--10--10---| x3


e|----------------------------------------------------------------------------------------------------|
B|--8--8--8--8--10--8--10---10--10--10--10--10--10----------------------------------------------------|
G|--9--9--9--9--9---9--9----9---9---9---9---9---9----9---9---9---9---9---9---9---9---9----------------|
D|--7--7--7--7--7---7--7----7---7---7---7---7---7----7---7---7---7---7---7---7---7---7----------------|
A|--7--7--7--7--7---7--7----8---8---8---8---8---8----8---8---8---8---8---8---8---8---8----------------|
E|---------------------------------------------------10--10--10--10--10--10--10--10--10--8--8--8------|


e|----------------------------------------------------------------------------------------------------|
B|----------------------------------------------------------------------------------------------------|
G|----7--5--------7-----10------10--12--10-----9--10--9------------------7--7--7--7--7--7-------------|
D|----------7------------------------------------------------------------8--8--8--8--8--8-------------|
A|-------------------------------------------------------12--------------6--6--6--6--6--6-------------|
E|--5----------6-----6------10--------------9----------------10--12--10--6--6--6--6--6--6-------------|

e|----------------------------------------------------------------------------------------------------|
B|----------------------------------------------------------------------------------------------------|
G|--6--6--6--6--6--6----3--3--3--3--3--3----2--2--2--2--2--2----2--2--2--2--2--2----2--2--2--2--2--2--|
D|--6--6--6--6--6--6----3--3--3--3--3--3----2--2--2--2--2--2----2--2--2--2--2--2----2--2--2--2--2--2--|
A|--5--5--5--5--5--5----x--x--x--x--x--x----x--x--x--x--x--x----x--x--x--x--x--x----2--2--2--2--2--2--|
E|--5--5--5--5--5--5----3--3--3--3--3--3----2--2--2--2--2--2----1--1--1--1--1--1----------------------|

e|---------------------0------------------------------------------------------------------------------|
B|---------------------0------------------------------------------------------------------------------|
G|--1--1--1--1--1--1---1------------------------------------------------------------------------------|
D|--2--2--2--2--2--2---2--(let ring)------------------------------------------------------------------|
A|--2--2--2--2--2--2---2------------------------------------------------------------------------------|
E|--0--0--0--0--0--0---0------------------------------------------------------------------------------|



e|----------------------------------------------------------------------------------------------------|
B|--8--8--8--8--10--8--10---10--10--10--10--10--10----------------------------------------------------|
G|--9--9--9--9--9---9--9----9---9

Then Again Maybe You Were Right Tabs by La Dispute V2

 La dispute
Somewhere At the Bottom of the River Between Vega and Altair (2008)
Then Again, Maybe You Were Right

Drop D


Intro 0:00-0:09

E|-------|
B|-------|
G|-------|
D|---2~~~|
A|---2~~~|
D|---2~~~| x4


Verse 0:09-0:31
0
E|-------------------------------------------------------------|
B|-------------------------------------------------------------|
G|-------------------------------------------------------------|
D|---2-xxxx------xxxx-2222--7-5-3---2-xxxx------xxxx-2222-33---|
A|---2-xxxx------xxxx-2222--7-5-3---2-xxxx------xxxx-2222-33---|
D|---2-xxxx-xxxx-xxxx-2222--7-5-3---2-xxxx-xxxx-xxxx-2222-33---|

E|------------------------------------------------------------------|
B|------------------------------------------------------------------|
G|------------------------------------------------------------------|
D|---2-xxxx------xxxx-2222-7-5-3-5-2-3~--2-xxxx------xxxx-2222-33---|
A|---2-xxxx------xxxx-2222-7-5-3-5-2-3~--2-xxxx------xxxx-2222-33---|
D|---2-xxxx-xxxx-xxxx-2222-7-5-3-5-2-3~--2-xxxx-xxxx-xxxx-2222-33---|


E|--------------------------------------------------------------|
B|--------------------------------------------------------------|
G|--------------------------------------------------------------|
D|---2-xxxx------xxxx-2222-7-5-3-5---2-xxxx------xxxx-2222-33---|
A|---2-xxxx------xxxx-2222-7-5-3-5---2-xxxx------xxxx-2222-33---|
D|---2-xxxx-xxxx-xxxx-2222-7-5-3-5---2-xxxx-xxxx-xxxx-2222-33---|

E|---------------------------------------|
B|---------------------------------------|
G|---------------------------------------|
D|---2-xxxx------xxxx-2222-7-5-3-5-2-3~~~|
A|---2-xxxx------xxxx-2222-7-5-3-5-2-3~~~|
D|---2-xxxx-xxxx-xxxx-2222-7-5-3-5-2-3~~~|


Chorus 0:32-0:51

E|--------------------------------------------|
B|--------------------------------------------|
G|--------------------------------------------|
D|---2-0-2-----------------2-0-2--5-x-7-3-5---|
A|---2-0-2---*Pickslide*---2-0-2--5-x-7-3-5---|
D|---2-0-2-----------------2-0-2--5-x-7-3-5---|

E|------------------------------------------|
B|------------------------------------------|
G|------------------------------------------|
D|---2-0-2-----------------2-0-2--6-x-1-1---|
A|---2-0-2---*Pickslide*---2-0-2--6-x-1-1---|
D|---2-0-2-----------------2-0-2--6-x-1-1---|

E|--------------------------------------------|
B|--------------------------------------------|
G|--------------------------------------------|
D|---2-0-2-----------------2-0-2--5-x-7-3-5---|
A|---2-0-2---*Pickslide*---2-0-2--5-x-7-3-5---|
D|---2-0-2-----------------2-0-2--5-x-7-3-5---|

E|----------------------------------------|
B|----------------------------------------|
G|----------------------------------------|
D|---2-0-2-----------------2-0-2--5-x-7~~~|
A|---2-0-2---*Pickslide*---2-0-2--5-x-7~~~|
D|---2-0-2-----------------2-0-2--5-x-7~~~|


Collision 0:51-1:01

E|-------------------------|
B|-------4~~~~~~~~~~~~~~---|
G|-------7~~~~~~~~~~~~~~---|
D|---0~~~~~~~~~~~~~~~~~~---|
A|---0~~~~~~~*Pickslide*---|
D|---0~~~~~~~~~~~~~~~~~~---|


Solo 1:01-1:11

E|---------------------------------------|
B|---------------------------------------|
G|---------------------------5h7p5-------|
D|---0-3h5-0-3h6-0-3h5-3/5p0-------6p5---|
A|---------------------------------------|
D|---------------------------------------| x3

E|--------------------------------------|
B|--------------------------------------|
G|--------------------------------------|
D|---0-3h5-0-5h6-0-6h8-0-8h10-0-10h12---|
A|--------------------------------------|
D|--------------------------------------|


Bridge 1:11-1:22

E|-------------------------------------------------------|
B|-------------------------------------------------------|
G|---7-7---7-7-7---7-7---7-7-7---5-5---5-5-5---8-8---8~~~|
D|---x-x---x-x-x---x-x---x-x-x---x-x---x-x-x---x-x---x~~~|
A|---5-5---5-5-5---5-5---5-5-5---3-3---3-3-3--/6-6---6~~~|

Some Dispute Over T-shirt Sales Tabs by Butthole Surfers

 SOME DISPUTE OVER T-SHIRT SALES

by the butthole surfers

 chris lawrence (mustang@islandnet.com)

Intro:

E----------------------------------------------------------14b-14b-14br^12\10-|
B-----------------------------------------------------------------------------|
G----------------12-12---------12-12---------12b(12)12r-10--------------------|
D--12-12-X-X-X-X-12-12-X-X-X-X-12-12-X-X-X-X----------------------------------|
A--12-12-X-X-X-X-10-10-X-X-X-X-10-10-X-X-X-X----------------------------------|
E--10-10-X-X-X-X-------X-X-X-X-------X-X-X-X----------------------------------|

Repeat simile.

Verse:

E--------------------------------------------------------------|
B--------------------------------------------------------------|
G--------------------------------------------------------------|
D--12-12-X-X-X-X-12-12-X-X-X-X-12-12-X-X-X-X-12-X-X-X-X-X-X-X--|
A--12-12-X-X-X-X-12-12-X-X-X-X-12-12-X-X-X-X-12-X-X-X-X-X-X-X--|
E--10-10-X-X-X-X-10-10-X-X-X-X-10-10-X-X-X-X-10-X-X-X-X-X-X-X--|

End of verse:

E------------|
B------------|
G------------|
D--8-8-8-8-7-|
A--8-8-8-8-7-|
E--6-6-6-6-5-|

Play intro riff again, back into verse...
Play intro riff again, back into verse...

this time at the end of the verse, play:

E----------------------------------|
B----------------------------------|
G----------------------------------| ETC
D--8-8-8-8-7-7-X-X-X-X-7-7-X-X-X-X-|
A--8-8-8-8-7-7-X-X-X-X-7-7-X-X-X-X-|
E--6-6-6-6-5-5-X-X-X-X-5-5-X-X-X-X-|

SOLO:

E------------------------------------------------------------|
B------------------------------------------------------------|
G---------14-12----------------------------------------------|
D--14b~~--------14-12----12----14b~-------------------12b~~--|
A---------------------15----15------15-12----12-15-12--------|
E-----------------------------------------15-----------------|

E-------------------------------------------------------------------------|
B-------------------------------------------------------------------------|
G---------------------------------------13-11-----------------------------|
D-----------12----13br-12----12---------------13-11----------------9----9-|
A--12----12----15---------15----15-12~~-------------13b-11-9-10-11---11---|
E-----15------------------------------------------------------------------|

E------------------------------------------------------------------------|
B------------------------------------------------------------------------|
G------------11-----11-------12-10---------------------------------------|
D--11-9-11b-----11b----11r\--------12-10---------------8----8-12-10-8----|
A----------------------------------------12b-10-8-9-10---10-----------10-|
E------------------------------------------------------------------------|

E---------------------------------------------|
B---------------------------------------------|
G--11-9----------------10-8-------------------|
D-------11-9----------------10-8-----------9--|
A------------11b-9-8-9-----------10b-8-7-8-7--|
E------------------------------------------0--|

Repeat intro, end on:

E----------|
B----------|
G----------|
D--12-12\--|
A--12-12\--|
E--10-10\--|

-------------------------------------------------
THE BUTTHOLE SURFERS GUITAR/BASS TAB ARCHIVE:
http://www.islandnet.com/~mustang/1401/index.html
-------------------------------------------------