Tag: doors

Goodbyes chords – 3 Doors Down V2

 [Intro]:
 Am  -  C  -  Am  -  C  -  Am  -  C  -  G  - ( D )

[Verse]:
            Am C 
There's so much that I would say
            Am C 
If I could see you one last time.
           Am 
But now I can't
                  C 
cause you're not here
            G       ( D )
But you're Always on my mind.
             Am C 
When I look up And you're not there
        Am C 
When I lie awake at night
           Am G 
All these things I ask myself
 ( D )            F 
I don't know why.

[Chorus]:
                         C 
(When it's the first time)
When it's the first time
                   Em 
That you'll never see someone again
                G 
(When it's the last time)
When it's the last time
             F G 
You weren't ready for it to end.
         C 
(When a light leaves you)
When a light leaves you
            Em             
Standing alone there in the dark.
                 G 
(It's never easy) They're never easy
          F Am - G - C - G - Am - G - C 
But sometimes Goodbyes are so hard.
                  Am - G - C - G - F 
(They're so hard)

[Verse 2]:
        Am C 
I look ahead, but can't move on
        Am C 
I look back but I can't stay.
        Am C 
And I keep trying to be strong
          G D 
But this pain, it won't go away.
            Am C 
And I hope this will heal in time
               Am C 
Cause I can't go on like this.
            Am G 
And right now, I would give my life
 ( D )                F 
For one last kiss.

[Chorus(same as the first one)]:
                         C 
(When it's the first time)
When it's the first time
                   Em 
That you'll never see someone again
                G 
(When it's the last time)
When it's the last time
             F G 
You weren't ready for it to end.
         C 
(When a light leaves you)
When a light leaves you
            Em             
Standing alone there in the dark.
                 G 
(It's never easy) They're never easy
          F Am - G - C - G - Am - G - C 
But sometimes Goodbyes are so hard.
                  Am - G - C - G - F 
(They're so hard)

[Bridge]:
 Dm Am G 
    You'll be there on my mind
 Dm Am G              
    Standing in the sunshine.

[Chorus]:
                         C 
(When it's the first time)
When it's the first time
                   Em 
That you'll never see someone again
                G 
(When it's the last time)
When it's the last time
             F G 
You weren't ready for it to end.
         C 
(When a light leaves you)
When a light leaves you
            Em             
Standing alone there in the dark.
                 G 
(It's never easy) They're never easy
          F Am - G - C - G - Am - <spa

Here By Me chords – 3 Doors Down V3

 standard tuning

 jasper

Intro  G C 

VERSE
   G C G C 
I hope you're doin' fine out there without me
        Am C 
'Cause I'm not doin' so good without you
     G C G C 
The things I thought you'd never know about me
          Am C 
Were the things I guess you always understood

PRE-CHORUS
    Am C 
So how could I have been so blind for all these years
 Am C 
Guess I only see the truth through all this fear

Of living without you

CHORUS
     G D 
And everything I have in this world
     C Am 
And all that I'll ever be
          C Am 
It could all fall down around me
         C G Em 
Just as long as I have you right here by me

VERSE
 G C G C 
I can't take another day without you
              Am C 
'Cause baby, I could never make it on my own
 G C G C 
I've been waiting so long just to hold you
        Am C 
And to be back in your arms where I belong

PRE-CHORUS
 Am C 
Sorry I can't always find the words to say
 Am C 
Everything I have ever known gets swept away

Inside of your love

CHORUS

BRIDGE
 G C 
As the days roll on I see
 G C 
Time is standing still for me
 Am 
When you're not here
 G C G C 
Sorry I can't always find the words to say
 Am C 
Everything I've ever known gets swept away

Inside of your love

CHORUS

END ON G

Youre Lost Little Girl Tabs by Doors V2

 The Doors-You're Lost Little Girl
---------------------------------
 

e|-----2-0--------0-----2-0----------0----|
B|---0------1-0h1-----0------1-0-0h1------|
G|---0------0---------0------0------------|
D|---2------2---------2------2------------|
A|---2------3---------2------3------------|
E|-0----------------0---------------------|


e|-----2-0--0------0------3-----3------1------5-----|
H|---0--------1------1------3-----3------1------5---|
G|---0----------0------0------4-----4------2------6-|
D|---2------2------2------5-----5------3------7-----|    
A|---2----------------------------------------------|
E|-0------------------------------------------------|

e|-2-2-0-2--3--3----2-0-0-2--3--3---2--0-2--3--3--------2h3p2p0---------------|
H|-----------3--3-------------3--3-----------3--3-----3---------2h3p2p0---5-3-|
G|------------3--3-------------3--3-----------3--3--2-------------------2-----|
D|----------------------------------------------------------------------------|
A|----------------------------------------------------------------------------|
E|----------------------------------------------------------------------------|

e|--3-----3------2------2-----1-----1-----5-----5-----|
H|----3-----3------3------3-----1-----1-----5-----5---|
G|------4-----4------4------4-----2-----2-----6-----6-|
D|--5-----5------4------4-----3-----3-----7-----7-----|
A|----------------------------------------------------|
E|----------------------------------------------------|

e|-2-0-2--3--3--------2h3p2p0---------------|
H|---------3--3-----3---------2h3p2p0---5-3-|
G|----------3--3--2-------------------2-----|
D|------------------------------------------|
A|------------------------------------------|
E|------------------------------------------|

 
e|-----2-0--------0-----2-0----------0----|
B|---0------1-0h1-----0------1-0-0h1------|
G|---0------0---------0------0------------|
D|---2------2---------2------2------------|
A|---2------3---------2------3------------|
E|-0----------------0---------------------|


e|--3-----3------1------5-----|
H|----3-----3------1------5---|
G|------4-----4------2------6-|
D|--5-----5------3------7-----|    
A|----------------------------|
E|----------------------------|

Solo:

e|-/10--7-----10/12-------/15---12---10p7-10-7--10-9-8-7----------10/12----|
H|--------8---------10-----------------------------------8--------------10-|
G|----------9----------------------------------------------9---------------|
D|-----------------------------------------------------------10-7----------|
A|-------------------------------------------------------------------------|
E|-------------------------------------------------------------------------|

e|--/15-12h15-12-10h12-10-7h10-7--/13-/17--|
H|-----------------------------------------|
G|-----------------------------------------|
D|-----------------------------------------|
A|-----------------------------------------|
E|-----------------------------------------|


e|-2-0-2--3--3----2-0-2--3--3---2-0-2--3--3--------2h3p2p0---------------|
H|---------3--3-----------3--3----------3--3-----3---------2h3p2p0---5-3-|
G|----------3--3-----------3--3----------3--3--2-------------------2-----|
D|-----------------------------------------------------------------------|
A|-----------------------------------------------------------------------|
E|-----------------------------------------------------------------------|


e|--3-----3------2------2-----1-----1-----5-----5-----|
H|----3-----3------3------3-----1-----1-----5-----5---|
G|------4-----4------4------4-----2-----2-----6-----6-|
D|--5-----5------4------4-----3-----3-----7-----7-----|
A|----------------------------------------------------|
E|----------------------------------------------------|

e|-2-0-2--3--3--------2h3p2p0---------------|
H|---------3--3-----3---------2h3p2p0---5-3-|
G|----------3--3--2-------------------2-----|
D|----

Riders On The Storm chords – Doors V5

 Intro:  Em - G - Em Em   -   G     -    Em Em  -   G     -    Em  
Riders on the storm, riders on the storm
   Am         -          Bm/A - C/A - D/A Em    -    G      -      Em  
Into this house were born,        into this world were thrown
         D C Em  -  G    -     Em 
Like a dog without a bone, an actor out on loan, riders on the storm

           Em   -   G    -   Em Em     -   G   -    Em  
There's a killer on the road, his brain is squirming like a toad
     Am     -      Bm/A - C/A - D/A Em     -    G    -    Em  
Take a long holiday,         let your children play
         D C Em  -   G   -     Em 
If you give this man a ride, sweet memory will die, killer on the road, yeah

Solo: (  Em - G - Em  ) x2  Am - Bm/A - C/A - D/A Em - G - Em D C  (  Em - G - Em  ) x2

          Em  -   G     -    Em Em  -   G     -    Em  
Girl ya gotta love your man, girl ya gotta love your man
  Am      -        Bm/A - C/A - D/A Em   -    G  -    Em  
Take him by the hand,        make him understand
      D C Em   -  G    -     Em 
The world on you depends, our life will never end, gotta love your man, yeah

Solo: (  Em - G - Em  )x16   D - Em D - Em   (  Em - G - Em  ) x4

 Em   -   G     -    Em Em  -   G     -    Em  
Riders on the storm, riders on the storm
   Am         -          Bm/A - C/A - D/A Em    -    G      -      Em  
Into this house were born,        into this world were thrown
         D C Em  -  G    -     Em 
Like a dog without a bone, an actor out on loan, riders on the storm

(  Em - G - Em  )x4  (  Em - G  -  Em  )   x5      Em 
                 Riders on the storm

Spanish Caravan chords – Doors

 EM : 022000
 AM : X02210
 B7 : X21202



 EM AM B7 EM 
Carry me Caravan take me away 
 EM AM B7 EM 
Take me to Portugal, take me to Spain 
 AM EM B7 EM 
Andalusia with fields full of grain 
 AM EM B7 EM 
I have to see you again and again 
 EM 
Take me, Spanish Caravan 
 D C 
Yes, I know you can 


 EM AM B7 EM 
Trade winds find Galleons lost in the sea 
 EM AM B7 EM 
I know where treasure is waiting for me 
 AM EM B7 EM 
Silver and gold in the mountains of Spain 
 AM EM B7 EM 
I have to see you again and again 
 EM 
Take me, Spanish Caravan 
 D C 
Yes, I know you can

Hope You Like it, its my first tab ever! 

Open Doors Tabs by And You Will Know Us By The Trail Of Dead

 Open Doors
...And You Will Know Us By the Trail of Dead

standard tuning

intro is just muted strings with
e|------------|
B|------+5----|
G|---------+5-|
D|------------|
A|------------|
E|---+5-------|
repeated over it

im not gonna tab it out line by line because its pretty simple and repetitive
so the chords are

e|-------------------------------|
B|-------------------------------|
G|-9-----------------------------|
D|-9x16--9----10------------5----|
A|-7-----9x16-10x12---------5x16-|
E|-0-----7----8----10101010-3----|

e|------------------------|
B|------------------------|
G|-9----------------------|
D|-9x16-9----11----10-----|
A|-7----9x16-11x16-10x16--|
E|-0----7----9-----8------|

theres a bridge/break part about half way in that i play as
e|--------------------------------------|
B|--------------------------------------|
G|-2222-222-4444-444-5555-555-5555-555--|
D|--------------------------------------|
A|-0000-000-2222-222-3333-333-3333-333--|
E|--------------------------------------|

the bridge appears again a little bit after and is extended after a few repeats
e|---------------------|
B|---------------------|
G|-4----5----6----5----|
D|--x16--x16--x16--x16-|
A|-2----3----4----3----|
E|---------------------|

e|------------------------|
B|------------------------|
G|-4----5----6----7---8---|
D|--x16--x16--x16--x8--x8-| then back to the E5 of the main chords
A|-2----3----4----5---6---|
E|------------------------|

this part is played again at the very end and finishes with a nice full resounding E5 
with the 6th string

played

Fathers Son Acoustic Tabs by 3 Doors Down

 3 Doors Down - Father's Son

 Sami
Standard tuning


This is based on the acoustoc version


The guitar alternates between picking the riff below and the verse's chords


Intro + Verses

e|-------------------------0---------------------------------------|
B|---3-----3---------6-------6-------1-----1---------3-----3-------|
G|-----0-----0---------0-------0-------0-----0---------0-----0-----|
D|-------5---------------8---------------3---------------5-----5---|
A|-5-----------5s8-----------------3-----------3s5---------------5-|
E|-----------------------------------------------------------------|

--0-0-0---0-0-0--|
--3-3-1---1-1-3--|
--0-0-0---0-0-0--|
--5-5-3---3-3-5--|
--5-5-3---3-3-5--|
-----------------|

gm                  D#
  In the glare of a neon sign
    F             gm
She laid her body down
  gm               F
A man walked in beside her
    (F)            gm
And laid his money down

He said don't try to scream now
But I want this one to hurt
And tonight my pretty one
I'm gonna get my money's worth

She said they never listened
She said they'd never understand
That I don't this for pleasure
I just do it cause I can

I swear I didn't want to
And I swear I didn't know
That things like this could happen
To a 17-year old

Chorus:

         D#         A#           F      gm
And I've bundled up all of these fears inside
         D#         A#          F
And I've bottled up all of this pain
    D#         A#           F           gm
And no one and nothing, can take this away
      D#           A#       F
But I won't let it happen again - never again



(First acoustic guitar playing riff, second one chords)

In the haze of a smoky room
He chokes that bottle down
It's been a month since her saw her face
Underneath the blood stained gown

He thinks about that little girl
And the one he has at home
And wonders what if that was my little girl
Walkin' down that road alone

Maybe I'm just crazy or the devil got inside
But either way my soul is gone, I'll end this all tonight
The one hand throws the whiskey, and the other throws the gun
As he cries out to the heavens
I am not my father's son

Chorus x2