Tag: down

Falling Down piano chords by LiL PEEP

[Intro]
 C                    Am                   Em
Come let's watch the rain as it's falling down

(Now let's do this one for Peep)
 C                 Am                Em
Sunlight on your skin when I'm not around
 C                   Am                      Em
Shit don't feel the same when you're out of town
     C                    Am                  Em
So come let's watch the rain as it's falling down, yeah


[Chorus]
  C                    Am                  Em
Come let's watch the rain as it's falling down (falling down)
  C                Am                Em
Sunlight on your skin when I'm not around ( I'm not around)
 C                   Am                      Em
Shit don't feel the same when you're out of town (out of town)

(O-o-oh, o-oh, o-oh)
     C                   Am                   Em
So come let's watch the rain as it's falling down

(O-o-oh, o-oh, o-oh)


[Verse]
 C                   Am                  Em
Rain keeps falling, tears keep falling
 C                   Am                  Em
Rain keeps falling, tears keep falling
              C             A                     Em
Darling, your love is like walking a bed of nails
             C     Am             Em
And I just can't keep on fighting

O-o-oh, o-oh, o-oh


[Chorus]
  C                    Am                  Em
Come let's watch the rain as it's falling down (falling down)

O-o-oh, o-oh, o-oh
 C                 Am                Em
Sunlight on your skin when I'm not around (I'm not around)

O-o-oh, o-oh, o-oh
  C                  Am                      Em
Shit don't feel the same when you're out of town

O-o-oh, o-oh, o-oh
     C                    Am                  Em
So come let's watch the rain as it's falling down

O-o-oh, o-oh, o-oh


[Interlude]

His name will live, bro'
        C                                            Am
No, I gotta, I feel hella shitty because it's like, yo
                                            Em
Like, if I would have known he was so cool

And it's like, yo, if I would have watched interviews sooner, bro, we were so alike
C                                                       Am                               Em
It's unfortunate because it's like, yo, when people die, that's when you're there, you know?

'Cause your remorse kinda makes you check 'em out


[Bridge]
               C            Am                   Em
Darling, your love is like walking a bed of nails
            C     Am      Em
And I just can't keep on fighting


[Chorus]
  C                    Am                  Em
Come let's watch the rain as it's falling down (falling down)

O-o-oh, o-oh, o-oh
 C                 Am                Em
Sunlight on your skin when I'm not around (I'm not around)

O-o-oh, o-oh, o-oh
  C                  Am                      Em
Shit don't feel the same when you're out of town

O-o-oh, o-oh, o-oh
     C                    Am                  Em
So come let's watch the rain as it's falling down

O-o-oh, o-oh, o-oh

Dig Down Chords version 2 by Muse

[Intro]

G

[Verse 1]
     G        F
When hope and love has been lost
        C
And you fall to the ground
         G
You must find a way
                      F
When the darkness descends
                         C
And you're told it's the end
         G
You must find a way
     G              F
When God decides to look the other way
      C
And a clown takes the throne
        G
We must find a way
                F
Face the firing squad
                C
Against all the odds
                G
You will find a way

[Chorus]
G
Dig down
F
Dig down
C
Dig down
         G
And find faith
                         F
When you're close to the edge
                   C
With a gun to your head
                G
You must find a way

[Verse 2]
     G           F
When friends are fearing the crowd
         C
And they try to divide us
               G
We must find a way
                    F
We have entered the fray
                C
And we will not obey
               G
We must find a way

Yeah

[Chours]
G
Dig down
F
Dig down
C
Dig down
         G
And find faith
                          F
When they've left you for dead
                 C
And you can only see red
                G
You must find a way


G
Dig down
F
Dig down
C
Dig down
     G
Find faith
                  F
We won't let them divide
              C
We will never abide
               G
We will find a way
G
Dig down
F
Dig down
C
Dig down
G
Faith
F
Dig down
C
Dig down
G
Faith

Gonna Lay Down My Old Guitar chords – Doc Watson

 Gonna Lay Down My Old Guitar - Doc Watson with Merle Watson

  Alton Delmore
Original key : D

From the 1965 album "Doc Watson & Son"
 
Chords
  D D7 Fdim G G7 A7 Bm 
EADGBe  EADGBe EADGBe  EADGBe  EADGBe  EADGBe  EADGBe  
200232  200212 xx3131  320003  320001  002020  244232

Fingering the Fdim corectly allows a simple slide down to the A7.

If you want to try the Fdim chord in other inversions a Fdim7 sounds OK.


Intro:

 D Fdim D Fdim D Fdim A7 D   

#1:
 D Fdim A7 D D7 
I'm gonna lay down my old    gui-tar
 G D D7 
Gonna lay down my old gui-tar
   G D D/C# Bm    
I wish I could tie it to my    side
     D Fdim A7 D  
And take it along with me

#2:
 D Fdim A7 D D7 
Lord, I'm sick in this lone-some bed
     G D D7 
I'm sick in this lonesome bed
         G D D/C# Bm    
There's no one to hold my ach-ing  head
          D Fdim A7 D  
Lord I'm sick in this lone-some bed

Instrumental (chords as per intro and verse):

 D Fdim D Fdim D Fdim A7 D D Fdim A7 D D7 G D D7 G D D/C# Bm D Fdim A7 D  

#3:
 D Fdim A7 D D7 
There's no one to cry  for me   
         G D D7 
There's no one to cry for me
      G D D/C# Bm    
I've wandered so far away don't you see
     D Fdim A7 D  
For there's no one to cry  for me

#4:
 D Fdim A7 D D7 
I'm gonna lay down my old    gui-tar
 G D D7 
Gonna lay down my old gui-tar
   G D D/C# Bm    
I wish I could tie it to my    side
     D Fdim A7 D  
And take it along with me

Instrumental (chords as per intro):

 D Fdim D Fdim D Fdim A7 D  

#5:
 D Fdim A7 D D7 
I'm telling this world goodbye   
         G D D7 
I'm telling this world goodbye
      G D D/C# Bm    
I'm telling this world and my dear little girl
    D Fdim A7 D  
Lord, I'll soon tell them all  goodbye

#6:
 D Fdim A7 D D7 
I'm gonna lay down my old    gui-tar
 G D D7 
Gonna lay down my old gui-tar
   G D D/C# Bm    
I wish I could tie it to my    side
     D Fdim A7 D  
And take it along with me

Instrumental outro:

 D Fdim D Fdim D Fdim A7 D D7

When The Sun Of My Life Goes Down chords – Doyle Lawson

 G 
When my labor here is over at last and I lay these burdens down

      D7 G A7 D7 
I'll sail away home to Heaven above for my Savior I have found

      G 
I'll lay these burdens down at His feet and exchange them for a crown

                                             D7 G 
I'll leave this world of trouble and sorrow when the sun of my life goes down



Oh Lord (oh Lord) I know (I know) I'm living on higher ground

   D7 G A7 D7 
I know (I know) because (because) in my heart's true love I've found

     G 
And when (and when) I hear (I hear) Gabriel's trumpet loudly sound

                                             D7 G 
I'll leave this world of trouble and sorrow when the sun of my life goes down



In this changing world I bid farewell when I hear that trumpet sound

      D7 G A7 D7 
I'll sail away to heaven above for my Savior I have found

      G 
I've made my plans I'm ready to go I'll wear a robe and crown

         
And I'll meet my friends and loved ones up yonder 

 D7 G 
When the sun of my life goes down



Oh Lord (oh Lord) I know (I know) I'm living on higher ground

   D7 G A7 D7 
I know (I know) because (because) in my heart's true love I've found

     G 
And when (and when) I hear (I hear) Gabriel's trumpet loudly sound

                                             D7 G 
I'll leave this world of trouble and sorrow when the sun of my life goes down



Oh Lord (oh Lord) I know (I know) I'm living on higher ground

   D7 G A7 D7 
I know (I know) because (because) in my heart's true love I've found

     G 
And when (and when) I hear (I hear) Gabriel's trumpet loudly sound

                                             D7 G 
I'll leave this world of trouble and sorrow when the sun of my life goes down


                                             D7 G 
I'll leave this world of trouble and sorrow when the sun of my life goes down

Bleeding Lies chords – Decyfer Down

 Intro
 
e------ 0----------------------------------------------|
B---- 0-- 0---------- 3---------- 0--------------------|
G-- 0------ 0---- 0---- 0------ 2-- 2-------- 2 2-- 0--|
D 2---------- 2 0-- 0---- 0-- 2------ 2---- 2---- 4-- 4|
A-------------------------- 3---------- 3 2------------|
E------------------------------------------------------|

or

 Em G A Am B Em G A C B Em  
No one knows me
     G A C B 
The man that's unseen inside
 Em 
What would do they do
    G A C B     
If they knew the truth I hide?

     C 
I'm not on the mend
     Am B 
And I won't pretend I'm fine
           C 
'Cause my soul's in the wind
       Am B 
But I wish I could learn to fly

 Em G           
Can you tell me why
 C Am Em 
 Truth cuts like a knife
        G Am B 
And it feels like I'm bleeding these lies?
 Em G      
What have I become?
 C Am Em 
  Razor's deed is done
         G C B       
Can you stop me from bleeding, bleeding inside?


 Em G A C B Em 
The cruelest untruths
     G A C B 
Are often those left untold
 Em 
What can I do
      G A C B 
When reaping the tales I've sown?

    C 
My mind's closing in
     Am B 
And I won't pretend I'm fine
      C 
This bleeding is pain
    Am B 
So Lord put me under the knife


 Em G           
Can you tell me why
 C Am Em 
 Truth cuts like a knife
        G Am B 
And it feels like I'm bleeding these lies?
 Em G      
What have I become?
 C Am Em 
  Razor's deed is done
         G C                      
Can you stop me from bleeding, bleeding inside?


 C A C A C C A 
I know it's You cutting through
    C B 
So save me while I'm still alive


 Em G           
Can you tell me why
 C Am Em 
 Truth cuts like a knife
        G Am B 
And it feels like I'm bleeding these lies?
 Em G      
What have I become?
 C Am Em 
  Razor's deed is done
         G A Em G A C                
Can you stop me from bleeding, bleeding lies?
 Em G C B 
         Bleeding, bleeding, bleeding, bleeding lies

Down The Street To 301 chords – Johnny Cash

 C F C G7 
There's a boy across the street lately he's looked very neat

 C F C G7 C 
Seems he's always on the run down the street to 301

                    F C G7 C 
(Seems he's always on the run down the street to 301)


             F C G7 
Saturday he mows the lawn it's about the crack of dawn

 C F C G7 C 
Nine o'clock the work's all done down the street to 301

                   F C G7 C 
(Nine o'clock the work's all done down the street to 301)


                   F C G7 
When it's back to school this fall winter's chill may end it all

 C F C G7 C 
But for now there's lots of fun with the girl at 301

                      F C G7 C 
(But for now there's lots of fun with the girl at 301)


                 F C G7 
Maybe they will never wed sure they may break up instead

 C F C G7 C 
But for now she is the one the girl who lives at 301

                  F C G7 C 
(But for now she is the one the girl who lives at 301)


                   F C G7 
The boy who lives across the street has a reason to be neat

 C F C G7 C 
He's in love and on the run with the girl at 301

                   F C G7 C 
(He's in love and on the run with the girl at 301)


                    F C G7 
Don't you tell 'em to beware of a summer love affair

 C F C G7 C 
You know she's his only one the girl that lives at 301

                     F C G7 C 
(You know she's his only one the girl that lives at 301)

Long Way Down intro Tabs – One Direction

 ----------------- LONG WAY DOWN - One Direction -----------------

: lukeypookieee

Email: slipknuts 

Tuning: Standard

this is my first tab, im pretty sure this is 100% correct!

Intro:

e|--0---0---3---3---5---5----------------------------------------|
B|--------------------------1---1--------------------------------|
G|---------------------------------------------------------------|
D|---------------------------------------------------------------|
A|---------------------------------------------------------------|
E|---------------------------------------------------------------|

e|---------------------------------------------------------------|
B|--1---1---3---3---5---5----------------------------------------|
G|--------------------------2---2--------------------------------|
D|---------------------------------------------------------------|
A|---------------------------------------------------------------|
E|---------------------------------------------------------------|



| /  slide up
| \  slide down
| h  hammer-on
| p  pull-off
| ~  vibrato
| +  harmonic
| x  Mute note

Down South chords – Jeremy Loops V2

 Knew the chords to this for ages and they never came on UG so thought I'd upload them. I play this in capo 3
but just test out the fret to see what fits your voice! In live performance Jeremy uses bar cords but it
sounds the same as this config.

Enjoy





Down South - Jeremy Loops.






 Am G 
I didn't want to leave you down south
                          C C/F C 
 When I said that I will call you, squeeze you a little bit of love
 Am G 
I didn't want to but it's good to see you
                    C 
 Tell me how you're doing
 Am G 
 I didn't want to leave you down south
                          C C/F C 
 When I said that I will call you, squeeze you a little bit of love
                  Am G 
 I didn't want to
 C C/F C 
 Anyway


 Am G 
 And in the light of day
           C 
 I didn't know this
 Am G 
 And everything she was
           C 
 I didn't show this
 Am G 
 And in the light of day
 C C/F C 
 I didn't know you
 Am G 
 But I wanted you to stay and I didn't wanna go
             C C/F C 
 I wouldn't take it away from you, no no

 [Chorus: Jeremy Loops]

  Am G 
 I didn't want to leave you down south
                          C C/F C 
 When I said that I will call you, squeeze you a little bit of love
           Am G 
 I didn't want to but it's good to see you
                     C C/F C 
 Tell me how you're doing
           Am G 
 I didn't want to leave you down south
                           C C/F C 
 When I said that I will call you, squeeze you a little bit of love
                Am G 
 I didn't want to
         C C/F C 
 Anyway


 [Verse 2: Motheo Moleko]
                               Am 
 I could of told you all the time
                         G 
 You wanted to hear it, eyes
                    C 
 I'm seeing it all clear
                 C/F C 
 You seem to be surprised
                    Am 
 Remember how we say
                     G  
 Someday we'll set sail
                    C             
 It took me so much, to get to where we are
 C/F C 
 And right now you are
 Am G 
 Slowing me down down, slowing me down down
 C C/F C 
 Trying to get up, you supposed to hold me down
                Am G 
 It's different, ambiguous it may seem
                          C 
 The light shines in the dark
  C/F C 
 I couldn't see
             Am 
 And in the light of day
   G C C/F C                
 Everything we dreamed, I didn't know this

 It's how you react, it's the kinda dream
           Am G C C/F C 
 (And Everything she was I didm't show this)

 But i'm

 Tearing up these scenes x2
 Am G 
 Time it waits for no one, it took me
  C C/F C 
 Twenty six years to feel this something
      Am G C C/F C 
 And i'll be damned if I let it slip away



 [Chorus: Jeremy Loops]
          Am 

Shut Me Down Tabs – Rowland S Howard

 Shut Me Down
By Rowland S Howard

Transcribed from the live version at All Tomorrow’s
Parties: 

Watch to get strumming pattern.

Verse
  C/G           Em
|-------0-------0---------------------(0)-(0)----------|
|-1-(1)-1-------0---------------------(0)-(0)----------|
|-0-(0)-0-------0---------------------(0)-(0)----------|
|-2-(2)-2-------2---------------------(2)-(2)----------|
|-3-(3)-3---3---2---------------------(2)-(2)----------|
|-3-(3)-3-3---3-0-(0)-(0)-(0)-(0)-(0)-(0)-(0)----------|
  d  u  d       d                      d   u


  C/G           Em
|-------0-------0---------------------(0)-(0)----------|
|-1-(1)-1-------0---------------------(0)-(0)----------|
|-0-(0)-0-------0---------------------(0)-(0)----------|
|-2-(2)-2---2---2---------------------(2)-(2)----------|
|-3-(3)-3-----3-2---------------------(2)-(2)----------|
|-3-(3)-3-3-----0-(0)-(0)-(0)-(0)-(0)-(0)-(0)----------|
  d  u  d       d                      d   u

Bridge
  C/G           Em
|-------0-------0---------------------(0)-(0)----------|
|-1-(1)-1-------0---------------------(0)-(0)----------|
|-0-(0)-0-------0---------------------(0)-(0)----------|
|-2-(2)-2-------2---------------------(2)-(2)----------|
|-3-(3)-3---3---2---------------------(2)-(2)----------|
|-3-(3)-3-3---3-0-(0)-(0)-(0)-(0)-(0)-(0)-(0)----------|
  d  u  d       d                      d   u

  C/G           
|-------0----------------------------------------------|
|-1-(1)-1----------------------------------------------|
|-0-(0)-0----------------------------------------------|
|-2-(2)-2---2------------------------------------------|
|-3-(3)-3-----3----------------------------------------|
|-3-(3)-3-3--------------------------------------------|
  d  u  d     

Chorus: Part 1
  F
|-1-1-1-1-1-1-1-1-1-1----------------------------------|
|-1-1-1-1-1-1-1-1-1-1----------------------------------|
|-2-2-2-2-2-2-2-2-2-2----------------------------------|
|-3-3-3-3-3-3-3-3-3-3----------------------------------|
|-3-3-3-3-3-3-3-3-3-3----------------------------------|
|-1-1-1-1-1-1-1-1-1-1----------------------------------|
  d d d u d u d d d u

Chorus: Part 2
  G
|-3-3-3-3-3-3-3-3-3-3----------------------------------|
|-3-3-3-3-3-3-3-3-3-3----------------------------------|
|-0-0-0-0-0-0-0-0-0-0----------------------------------|
|-0-0-0-0-0-0-0-0-0-0----------------------------------|
|-2-2-2-2-2-2-2-2-2-2----------------------------------|
|-3-3-3-3-3-3-3-3-3-3----------------------------------|
  d d d u d u d d d u

  G               F
|-3-3-3-3---------1-1-----1-1-1-------1-1-1------------|
|-3-3-3-3---------1---1---1-1---1-----1-1-1------------|
|-0-0-0-0---------2-----2-2-2-----2---2-2-2------------|
|-0-0-0-0-0-------3-------3-3-------3-3-3-3------------|
|-2-2-2-2---3-2-0-3-------3-3---------3-3-3------------|
|-3-3-3-3---------1-------1-1---------1-1-1------------|
  d d d u         d       d d         d d u

  G           F       Fma7(#11)/E
|-3---------3-1-1-1-1-0-0------------------------------|
|-3---------3-1-1-1-1-0-0------------------------------|
|-0---------0-2-2-2-2-2-2------------------------------|
|-0-0-------0-3-3-3-3-3-3------------------------------|
|-2---3-2-3-2-3-3-3-3-3-3------------------------------|
|-3---------3-1-1-1-1-0-0------------------------------|
 d          d d u d u d u

Chorus: Part 3
  C/G
|-x-0-x-x-x-x-x-0-x-x----------------------------------|
|-1-1-1-1-1-1-1-1-1-1----------------------------------|
|-0-0-0-0-0-0-0-0-0-0----------------------------------|
|-2-2-2-2-2-2-2-2-2-2----------------------------------|
|-3-3-3-3-3-3-3-3-3-3----------------------------------|
|-3-3-3-3-3-3-3-3-3-3----------------------------------|
  d d d u d u d d d u 

Song Structure:
Verse          (X4)
Bridge         (X1)
Chorus: Part 1 (X2)
Chorus: Part 2 (X1)
Chorus: Part 3 (X2)
Chorus: Part 1 (X2)
Chorus: Part 3 (X2)
Chorus: Part 1 (X2)
Verse          (X4)
Bridge         (X1)
Chorus: Part 1 (X2)
Chorus: Part 2 (X1)
Cho

Patty Dont You Put Me Down chords – Richard Thompson

 Patty Don't You Put Me Down

 Gm 
Patty don't tell me one thing and change your mind 
 Cm Gm 
We might be in bed together but the deal's not signed 
 Cm Gm 
They say you collect shrunken heads, would you like to have mine? 
 A# Eb/G 
Patty don't you put me down
 A# Eb/G 
Patty don't you put me down
 A D 
Patty don't you put me down
                  Gm C 
Don't colour me cruel
                 Gm C  
Don't colour me cruel
 Gm 
You're so used to skimming the ace and palming the jack
 Cm Gm 
The right hand giving and the left hand taking it back
 Cm Gm 
At society functions they probably give you more slack

 A# Eb/G 
Patty don't you put me down
 A# Eb/G 
Patty don't you put me down
 A D 
Patty don't you put me down
                 Gm C 
Don't colour me cruel
                 Gm C  
Don't colour me cruel
                F/C                                                     
You can stamp all you want, but this ain't television
    E/B 
I can't fix it all with a small incision
    Eb/Bb 
It's a meltdown you're having, not nuclear fission
         D/A 
There's no room service at the seaman's mission
         Gm 
In your ten watt world it's beyond any pleasure you know
     Cm Gm 
To stick your fingers in the socket, and give yourself a glow
 Cm Gm 
Keep that up and they might make you part of the show
 A# Eb/G 
Patty don't you put me down
 A# Eb/G 
Patty don't you put me down
 A D 
Patty don't you put me down
 A# Eb/G 
Patty don't you put me down
 A# Eb/G 
Patty don't you put me down
 A D 
Patty don't you put me down

                  Gm C 
Don't colour me cruel
                  Gm C  
Don't colour me cruel

Lay Me Down Piano Chords by Sam Smith

E 
Yes I do, I believe

That one day I will be, where I was
                            Aadd9
Right there, right next to you

And it's hard, the days just seem so dark

The moon, the stars, are nothing without you


       E
Your touch, your skin, where do I begin?
                                           Aadd9
No words can explain, the way I'm missing you

The night, this emptiness, this hole that I'm inside

These tears, they tell their own story


    F#m             A                C#m         B
You told me not to cry when you were gone
          F#m         A                      E     A/B
But the feelings overwhelming, it's much too strong
    E             C#m           F#m   A
Can I lay by your side, next to you, you
     E                 C#m
And make sure you're alright
                  F#m
I'll take care of you, 
       A                       A/B                   E 
And I don't want to be here if I can't be with you tonight


        E
I'm reaching out to you
                 A
Can you hear my call?
      E
This hurt that I've been through
                                    A
I'm missing you, missing you like crazy


    F#m             A                C#m         B
You told me not to cry when you were gone
          F#m         A                      E/B    A/B
But the feelings overwhelming, it's much too strong
    E        B/D# C#m           F#m   A
Can I lay by your side, next to you, you
     E                 C#m
And make sure you're alright
                  F#m
I'll take care of you, 
       A                       A/B                   F#m
And I don't want to be here if I can't be with you tonight


( F#m )   A   D   B7sus2


F#m     A     D       B7sus2
Lay me down tonight
F#m    A        D     B7sus2
lay me by your side
F#m     A     D       B7sus2
Lay me down tonight
F#m    A        D     B7sus2
lay me by your side


    E             C#m           F#m  A A/B E
Can I lay by your side, next to you, you

Lay Me Down Acoustic Chords – Sam Smith

E 
Yes I do, I believe

That one day I will be, where I was
                            Aadd9
Right there, right next to you

And it's hard, the days just seem so dark

The moon, the stars, are nothing without you


       E
Your touch, your skin, where do I begin?
                                           Aadd9
No words can explain, the way I'm missing you

The night, this emptiness, this hole that I'm inside

These tears, they tell their own story


    F#m             A                C#m         B
You told me not to cry when you were gone
          F#m         A                      E     A/B
But the feelings overwhelming, it's much too strong
    E             C#m           F#m   A
Can I lay by your side, next to you, you
     E                 C#m
And make sure you're alright
                  F#m
I'll take care of you, 
       A                       A/B                   E 
And I don't want to be here if I can't be with you tonight


        E
I'm reaching out to you
                 A
Can you hear my call?
      E
This hurt that I've been through
                                    A
I'm missing you, missing you like crazy


    F#m             A                C#m         B
You told me not to cry when you were gone
          F#m         A                      E/B    A/B
But the feelings overwhelming, it's much too strong
    E        B/D# C#m           F#m   A
Can I lay by your side, next to you, you
     E                 C#m
And make sure you're alright
                  F#m
I'll take care of you, 
       A                       A/B                   F#m
And I don't want to be here if I can't be with you tonight


( F#m )   A   D   B7sus2


F#m     A     D       B7sus2
Lay me down tonight
F#m    A        D     B7sus2
lay me by your side
F#m     A     D       B7sus2
Lay me down tonight
F#m    A        D     B7sus2
lay me by your side


    E             C#m           F#m  A A/B E
Can I lay by your side, next to you, you

What Went Down Tabs – Foals V2

 -------------------------------------------------------------------------------
                             Foals - What Went Down
-------------------------------------------------------------------------------
 Aleksander Vedom

Key: G minor
Tuning: I find Drop C the most convenient, you can play in any tuning you like.

Chords played in intro and verse

D|--------|
A|--------|
F|--------|
C|-5-7-2--|
G|-3-5-0--|
C|--------|

after strumming the latter power chord in verse fade in to pre-chorus with strumming the
same chord but now palm muted

D|---|
A|---|
F|---| - on loop until chorus
C|-2-|
G|-0-|
C|---|
pm .

Now this riff is played in
pre-chorus (palm muted & relatively clean) and
chorus (with more distortion and attack).
It was really a challenge to figure this one out to be honest :DD

it has some extra spacing so that it makes sense in 4/4
 D|-------------------------------------|--------------------------------------| 
 A|-------------------------------------|--------------------------------------| 
 F|-------------------------------------|--------------------------------------| 
 C|-------------------------------------|--------------------------------------| 
 G|-3-3-3-3--3-0-0-2--2-2-2-2b--2-0-0-0-|-3-3-3-3--3-0-0-3/5--5-5-5-2--2-2-0-0-| 
 C|-------------------------------------|--------------------------------------| 

->|-------------------------------------|----------------------------------|
->|-------------------------------------|----------------------------------|
->|-------------------------------------|----------------------------------|
->|-------------------------------------|----------------------------------|
->|-3-3-3-3--3-0-0-2--2-2-2-2b--2-0-0-0-|-3-3-3-3--3-0-0-0--5-5-0-0--7-7---|
->|-------------------------------------|----------------------------------|


Bridge is mostly crazy synth/xylophone stuff but there are a few recognizable guitar notes
so just mess around with them

D|------------------------------------------|
A|-10b-10-10b-10-12-12-12-12-10-10-10-10-8~-|
F|------------------------------------------|
C|------------------------------------------| and so on a couple times
G|------------------------------------------|
C|------------------------------------------|


Play this note in pre-chorus if you wish

D|----|
A|-10-|
F|----|
C|----|
G|----|
C|----|
pm .


End on

D|---|
A|---|
F|---|
C|---|
G|-7-|
C|---|

Order:

Intro
Verse
Pre-chorus
Chorus
Verse
Pre-chorus
Chorus
Bridge
Pre-chorus
Chorus


My first Foals tab! Hope this was helpful!
Ratings, comments and meaningful corrections are always welcome!

************************************

| /   slide up
| \   slide down
| h   hammer-on
| p   pull-off
| ~   vibrato
| +   harmonic
| x   Mute note
| b   Bend
| pb  Pre-bend
| br  Bend release
| pbr Pre-bend release
| brb Bend release bend

************************************

Somewhere Down The Road chords – Barry Manilow V2

 Somewhere Down the Road
Lyrics by Cynthia Weil
Melody by Tom Snow
Performed by Barry Manilow (1981)

   Am:x02210    
  Am7:x02010    
   A#:x13331
    C:x32010
  C/G:332010
Cadd2:x32030
Csus4:x33010
C#aug:x4322x
   Dm:xx0231
   Em:022000
E7/G#:420100    
    F:133211
   Fm:133111  
  F/A:x03211
    G:320003
   G#:466544


Intro:

 C F Em Dm C F Em Dm G 


Verse 1:

 C Em 
We had the right love
          F Em 
At the wrong time
 Dm C#aug 
Guess I always knew inside
 F G Csus4 C 
I wouldn't have you for a long  time
        F/A E7/G# 
Those dreams of yours
                  Em Am 
Are shining on distant shores
                  F/A Em 
And if they're calling you away
             F G 
I have no right to make you stay


Chorus

         Cadd2 C 
(But) somewhere down the road
      F Em 
Our roads are gonna cross again
      Am G 
It doesn't really matter when
       Cadd2 C 
But somewhere down the road
    F Em 
I know that heart of yours
       F G 
Will come to see
       F Em Dm G C 
That you be-long with me


Instrumental:

 F Em Dm G 


Verse 2:

 C Em 
Sometimes good-byes 
              F Em 
Are not for-ever
      Dm C#aug 
It doesn't matter if    you're gone
 F G Csus4 C 
I still be-lieve in us to – ge - ther
      F/A E7/G#     
I understand 
                Em Am 
More than you think I can
             F/A Em 
You have to go out on your own
             F G 
So you can find your way back home


Repeat Chorus  (And…)


Bridge:

 G# A# C Dm Am7 
Let-ting go is just another way to say
      Fm A# G C/G 
I'll al-ways love you so


Tag:

 C Em 
We had the right love
          F   
At the wrong time 
 Em Dm Em 
Maybe we've only just begun
            F G 
Maybe the best is yet to come


Repeat Chorus  (‘Cause…)


Coda:

 F Em Dm G C

My Brain Is Hanging Upside Down Acoustic chords by Ramones

 Standard TuninG  EADG Be 


Intro:  G F C G  


                                                                           
Verse 1:

 F C 
You've got to pick up the pieces, c'mon sort your trash and
 G  
Better pull yourself back together, maybe you've got too much cash baby
 F C 
Better call, call the law, when you gonna turn yourself in? Yeah
 G  
You're a politician, don't become one of Hitlers children
                                                                            

Pre-Chorus 1:

 Am G F 
Bonzo goes to Bitburg then goes out for a cup of tea
 Am G F 
As i watched it on TV somehow it really bothered me
 Am G F 
Drank in all the bars in town for understanding foreign policy
 Fm 
Pick up the pieces........

                                                                             
Chorus 1:

 C G F  
Ah na na na. My brain is hanging upside down
 C G F 
Ah na na na. I need something to slow me down
 C G F 
Ah na na na. My brain is hanging upside down
 C G        
Ah na na na. I need something to slow me down
        
                                                                    
Verse 2:

 F C                   
Shoulda wished her happiness, wished her the very best and
 G  
A fifty thousand dollar dress, shaking hands with your higness
 F C 
See through you like cellophane, you watch the world complain but
 G  
You do it anyway, who am I, am I to say?


Pre-Chorus 2:

 Am G F 
Bonzo goes to Bitburg then goes out for a cup of tea
 Am G F 
As i watched it on TV somehow it really bothered me
 Am G F 
Drank in all the bars in town for understanding foreign policy
 Fm 
Pick up the pieces........

                                                                             
Chorus 2:

 C G F  
Ah na na na. My brain is hanging upside down
 C G F 
Ah na na na. I need something to slow me down
 C G F 
Ah na na na. My brain is hanging upside down
 C G        
Ah na na na. I need something to slow me down



Instrumental break + key change to a step up: 

 D A G D A G D A G D A G 



Pre-Chorus 3:

 D 
If there's one thing that makes me sick
           A G  
It's when someone tries to hide behind politics
 D 
I'd wish that time could go by fast but
 A G  
Somehow they manage to make it last


                                                                             
Chorus 3/Outro:

 D A G  
Ah na na na. My brain is hanging upside down
 D A G 
Ah na na na. I need something to slow me down
 D A G  
Ah na na na. My brain is hanging upside down
 D A G 
Ah na na na. and I need something to slow me down, ooh yeah-yeah
 D A G  
Ah na na na. My brain is hanging upside down
 D A G 
Ah na na na. I need something to slow me down
 D A G  
Ah na na na. My brain is hanging upside

Lonesome Down And Out chords – Jason Eady

 Jason Eady——Lonesome Down and Out


 C C 
Well I started runnin’ after the stayin’ failed to work 
             Am G C 
Got used to livin’ a little heart broke and hurt
 C C 
Might seem reckless ‘cause I’m livin’ a lil’ out
          Am G C 
When the truth is I’m just lonesome down and out
 C C 
When I wake up with an achin’ a feelin’ I cannot hide
            Am G C 
I start to shakin’ I’m just breakin’ down inside
 C C 
Just don’t ask me ‘cause I won’t tell you I’m much too proud
          Am G C   
When the truth is I’m just lonesome down and out

Chorus:
 F C                  
Well I try to convince myself that I can’t feel the pain
 F C              
Soak it up with whiskey and I walk out in the rain
 F C Am 
Stumble down the street while I scream and shout
          C G C 
When the truth is I’m just lonesome down and out
 

Verse 2:
 C C 
Well I’m standin’ on a mountain the one I built with guilt and shame
         Am G C 
Lookin’ out on the messes I've made
 C C 
I wish that I could go back down and say I’m sorry without a doubt
          Am G C   
When the truth is I’m just lonesome down and out

Chorus:
 F C                  
Well I try to convince myself that I can’t feel the pain
 F C              
Soak it up with whiskey and I walk out in the rain
 F C Am 
Stumble down the street while I scream and shout
          C G C 
When the truth is I’m just lonesome down and out

Down At The Cross chords – Hymnal

 Down At the Cross
Words: Elisha A. Hoffman (1839-1929)
Music: John H. Stockton (1813-1877)

 C:x32010
 D:xx0232
D7:xx0212
 G:320001


Verse 1:

 G C G 
Down at the cross where my Savior died
 G D7 
Down where for cleansing from sin I cried
 G C G 
There to my heart was the blood applied
 G D7 G G7 
Glory to His Name


Refrain:

 C G D7 
Glory to His Name, glory to His Name
 G C G    
There to my heart was the blood applied
 G D7 G 
Glory to His Name


Verse 2:
I am so wondrously saved from sin
Jesus so sweetly abides within
There at the cross where He took me in
Glory to His Name

Verse 3:
Oh, precious fountain that saves from sin
I am so glad I have entered in
There Jesus saves me and keeps me clean
Glory to His Name

Verse 4:
Come to this fountain so rich and sweet
Cast thy poor soul at the Savior's feet
Plunge in today, and be made complete
Glory to His Name

Nod Tabs – Down V4

 Artist: Down
Song: N.O.D.
 Over the Under

 Leooooh666

Tunning: B F# B E G# C# (Drop B tunning)

b  - bend
v  - vibrato
pb - prebend
r  - release bend
/\ - slides (self explanatory)
h  - hammer on
p  - pull off
PM - Palm Mute
g  - grace note
ph - pinch harmonic
tr - trill
=  - tremelo pick
.  - Stoccato/Palm Mute


INTRO

Guitar I
|-------------------------------------------------------------------------------|
|-------------------------------------------------------------------------------|
|-------------------------------------------------------------------------------|
|--5h7-7-7p5----------3---3---3/5-6-5vv-----------------------------------------|
|-------------7-3-3h5---5---5---------------------------------------------------|
|-------------------------------------------------------------------------------|


Guitar 2
|-------------------------------------------------------------------------------|
|-------------------------------------------------------------------------------|
|--12h14-14-14p12-------------10----10----10/12-13-12vv-------------------------|
|------------------14-10-10h12----12----12--------------------------------------|
|-------------------------------------------------------------------------------|
|-------------------------------------------------------------------------------|


RIFF A (2x)
|-------------------------------------------------------------------------------|
|-------------------------------------------------------------------------------|
|-------------------------------------------------------------------------------|
|--------------------------------5----------------------------------------------|
|--0-0--3h5--0-0--3h5--0-0--3h5---------0-0--3h5--0-0--3h5--0-0--3h5--3p2p0-----|
|--0-0-------0-0-------0-0---------3vv--0-0-------0-0-------0-0-------------3vv-|


VERSE 1
|-------------------------------------------------------------------------------|
|-------------------------------------------------------------------------------|
|-------------------------------------------------------------------------------|
|-------------------------------------------------------------------------------|
|--0-0-3h5-0-----0-/10-10v-----0-0-3h5-0-----0-----------0-0-3h5-0----0-/10-10v-|
|--0-0-3h5-0-----0-/10-10v-----0-0-3h5-0-----0-/6-6v-----0-0-3h5-0----0-/10-10v-|


|--------------------------------------|
|--------------------------------------|
|--------------------------------------|
|--------------------------------------|
|--0-0-3h5-0---0000-0-0-0--------------|
|--0-0-3h5-0---0000-0-0-0--/6-5-3------|


|-------------------------------------------------------------------------------|
|-------------------------------------------------------------------------------|
|-------------------------------------------------------------------------------|
|-------------------------------------------------------------------------------|
|--0-0-3h5-0-----0-/10-10v-----0-0-3h5-0-----0-----------0-0-3h5-0--------------|
|--0-0-3h5-0-----0-/10-10v-----0-0-3h5-0-----0-/6-6v-----0-0-3h5-0-----/6-5-3---|


|-----------------------------|
|-----------------------------|
|-----------------------------|
|-----------------------------|
|--0-0-3h5-0-----0------------|
|--0-0-3h5-0-----0-/6-6v------|


CHORUS
|-------------------------------------------------------------------------------|
|-------------------------------------------------------------------------------|
|-------------------------------------------------------------------------------|
|--5h7-7-7p5---------3---3---3/5-6-5----5h7-7-7p5-------/7-5--------------------|
|------------7-3-3h5---5---5----------------------7-3---------8-7v--------------|
|-------------------------------------------------------------------------------|

RIFF A (2x)
|-------------------------------------------------------------------------------|
|-------------------------------------------------------------------------------|
|-------------------------

Let Your Hair Down solo Tabs – Magic

 -------------------------------------------------------------------------------
                             Let Your Hair Down - Magic
-------------------------------------------------------------------------------
: Eric Fung
 Ericfung1998@hotmail.com
 
Tuning: Standard

e|-------10--------11-------13--------15---17-------18v|
B|-13b15-----14b16-----16b18----18b20----------15------|
G|-----------------------------------------------------|
D|-----------------------------------------------------|
A|-----------------------------------------------------|
E|-----------------------------------------------------|

e|---------10-------------10---------------------------|
B|-13/15--------13-11-13-------------------------------|
G|------------------------------10v\-------------------|
D|-----------------------------------------------------|
A|-----------------------------------------------------|
E|-----------------------------------------------------|

e|-----------------------------------------------------|
B|-----------------------------------------------------|
G|----------12-----------14\12-------------------------|
D|----13-15-------13-15--------15----------------------|
A|-15----------15-----------------15\13--15/17--15v----|
E|-----------------------------------------------------|

e|-----------------------------------------------------|
B|-----------------------------------------------------|
G|-----------------------------------------------------|
D|--------------------15\------------------------------|
A|--15-------------------------------------------------|
E|-----15/17-15-13-------------------------------------|

e|---------------------------------------------18/20-18|
B|-----------------------------18b20-18-15-18----------|
G|--------------17b19-17-15-17-------------------------|
D|-----15---17-----------------------------------------|
A|-17--------------------------------------------------|
E|-----------------------------------------------------|

e|------------------------------18b20------------------|
B|-18-15----------------15v\----------18-15------------|
G|-------17-15----15h17---------------------15h17-15---|
D|-------------17--------------------------------------|
A|-----------------------------------------------------|
E|-----------------------------------------------------|

e|--------------------------15-------------15----------|
B|-16r15----------------15-----------18b20-------------|
G|-------15------17b19---------------------------------|
D|----------17-----------------------------------------|
A|-----------------------------------------------------|
E|-----------------------------------------------------|

e|-----------------------------------------------------|
B|--18--15---------------------------------------------|
G|---------17-15------15h17--17b19--17v\---------------|
D|----------------17-----------------------------------|
A|-----------------------------------------------------|
E|-----------------------------------------------------|

e|------15--------13--------10-------------------------|
B|-18---18---15---15---13---13---13---11--8-------8--11|
G|-17--------14--------12--------12---10--10--10--10---|
D|-----------------------------------------------------|
A|-----------------------------------------------------|
E|-----------------------------------------------------|

e|-----------------------------------------------------|
B|-11v\------------------------------------------------|
G|-----------------------------------------------------|
D|-----------------------------------------------------|
A|-----------------------------------------------------|
E|-----------------------------------------------------|
************************************

| /   slide up
| \   slide down
| h   hammer-on
| p   pull-off
| v   vibrato
| b   Bend

Hey guys, this is my first tab, sorry for any mistakes, tell me what you think. :D
************************************

If You Ever Get To Houston Look Me Down chords – Mickey Newbury

 If You Ever Get To Houston (Look Me Down)

Chorus:
        G C G 
If you ever get to Houston look me down
                                    A7 D  
If you ever get to Houston look me down
     G G7 C A7 
And if you find a memory that turns your thoughts around
     G C G D G 
And drops you off in Houston look me down

 G C G 
Cincinnati is a long long way from here
        G Em A7 D  
And it gets a little farther with each beer
     G C C/B A7 
And if I had a dollar bill for every two bit lounge
      G C G D G  
That I've been in I would not be here now

Chorus 

(Key Change to A)
Well, just one more song then the lights go out
Someone just dropped a nickel in my mouth
So I'll be dead and asleep in back of Richards Northside Lounge
If you ever get to Houston, look me down

Chorus