Tag: dream

Santa Monica Dream chords by Angus and Julia Stone

[Intro]

F - G - C

e|-------------------------------|----------------|------------------|
B|-------------------------------|---1-------1----|---1-------1------|
G|---0-------0--0--0--------0--0-|----------------|------------------|
D|------3-------------3----------|------2-------2-|------2-------2---| x4
A|-0---0------3--2--2--------2---|-3---3-------3--|-3---3-------3----|
E|-------------------------------|----------------|------------------|

F             G            C
Goodbye to my Santa Monica dream
F                   G                C
Fifteen kids in the backyard drinking wine
F             G            C
You tell me stories of the sea
F       G             C
And the ones you left behind
F              G             C
Goodbye to the roses on your street
F              G                 C
Goodbye to the paintings on your wall
F               G                   C
Goodbye to the children we'll never meet
F       G             C
And the ones we left behind
F       G             C
And the ones we left behind

[Chorus]
    C                 Am7
I'm somewhere, you're somewhere
    C                 Am7
I'm nowhere, you're nowhere
       C          G      C
You're somewhere, you're somewhere
        F        G     C
I could go there but I don't

[Verse]
F            G             C
Rob's in the kitchen making pizza
F            G             C
Somewhere down in Battery Park
F            G             C
I'm singing songs about the future
F            G             C
Wondering where you are
F            G             C
I could call you on the telephone
F            G             C
But do I really want to know?
F            G             C
You're making love now to the lady down the road
F            G             C
No I don't, I don't want to know


[Chorus]
    C                 Am7
I'm somewhere, you're somewhere
    C                 Am7
I'm nowhere, you're nowhere
       C          G      C
You're somewhere, you're somewhere
        F        G     C
I could go there but I don't

[Outro]
F            G             C
Goodbye to my Santa Monica dream
F            G             C
Fifteen kids in the backyard drinking wine
F            G             C
You will tell me stories of the sea
F            G             C
And the ones you left behind
F            G             C
And the ones we left behind

Into A Dream chords – Shannon and The Clams

 Into a Dream - Shannon and the Clams (Dreams in The Rat House, 2013)

Chords:

      F# Bb B Bm C# D#m F 
e|---9--------6--------7--------7--------9--------6--------8----|
B|---11-------6--------7--------7--------9--------7--------10---|
G|---11-------7--------8--------7--------10-------8--------10---|
D|---11-------8--------9--------9--------11-------8--------10---|
A|---9--------8--------9--------9--------11-------6--------8----|
E|------------6--------7--------7--------9----------------------|

Chords in Bridge:

      B E A F# 
e|---7--------7--------5--------9----|
B|---7--------9--------5--------11---|
G|---8--------9--------6--------11---|
D|---9--------9--------7--------11---|
A|---9--------7--------7--------9----|
E|---7-----------------5-------------|


Intro/Riff:
                       
e|----------------------------------------------------|
B|----------------------------------------------------|
G|----------------------------------------------------|  OR
D|----------------------------------------------------|
A|----9--999-999-999-999--9---------8--9--8-----------|
E|---------------------------9--11-----------11--9----|


e|----------------------------------------------------|
B|----------------------------------------------------|
G|----------------------------------------------------|  
D|----------------------------------------------------|  
A|-------6--8--9--8--6--------------------------------|
E|----9-----------------9-----------------------------|  <-- playing it this way for the outro is easier

 F# Bb 
I don't know what this could mean
     B Bm 
The barns are gone; only vines I see
 F# C# 
I don't know,
             F# 
Is it gonna be there?

(Riff)

 F# Bb 
Where's Mister Bill and his dusty dog?
 B Bm    
Outdoor bathtub and his truck is gone!
      F# C# 
Well I don't know,
               F# 
Are you gonna be there?


(Riff)      F# D#m F 
Into   a   dreeeam!
            F# D#m F 
Into   a   dreeeam!
            F# D#m F 
Into   a   dreeeam!
            F# D#m F     (Riff)
Into   a   dreeeam!


 F# Bb  
Oh my gosh, am I in a dream?
 B Bm 
I can't hear the peacocks scream!
 F# C# 
I don't know,
               F# 
if it's gonna be there.

(Riff)

 F# Bb 
Where have the chickens and the bunnies gone?
     B Bm 
The prize geese swimming in the scummy pond?
      F# C# 
Well I don't know,
               F# 
if it's gonna be there.


(Riff)      F# D#m F 
Into   a   dreeeam!
            F# D#m F 
Into   a   dreeeam!
            F# D#m F 
Into   a   dreeeam!
            F# D#m F     (Riff)
Into   a   dreeeam!

Bridge:(The chords are played like that, but I couldn't figure out how the chords fit with the words exactly)

 B E A F#       x4

Is this home?       
Is this home?      
Lonely leaves of mary jane
where the dog-tail used to stand
Moles have stole my mom's topaz,
dropped in the field from my hand.
I'd hold old Stan and Ollie's eggs if I had the chance!

 F# Bb 
I don't know what this could mean,
     B Bm 
the wrecking ball has bashed it clean.
 F# C# 
I don't kno

Once Upon A Dream Tabs – Lana Del Rey

 -------------------------------------------------------------------------------
                             Once Upon A Dream - Lana Del Rey
-------------------------------------------------------------------------------
: DarthCindy22
 Not available 

This is the Acoustic Version, please enjoy :3 Play all of this like- twice?


Tuning: Standard
Verse 1
e|---------------------------------------------------------------------------|
B|--------------------6-11-13-10-11------------------------------------------|
G|13-12-13-10-11-13-10-------------------------------------------------------|
D|---------------------------------------------------------------------------|
A|---------------------------------------------------------------------------|
E|---------------------------------------------------------------------------|

Verse 2
e|---------------------------------------------------------------------------|
B|---------------------------------------------------------------------------|
G|---------------------------------------------------------------------------|
D|13-12-11-8-15-13-15-12-11-9--9---------------------------------------------|
A|---------------------------12----------------------------------------------|
E|---------------------------------------------------------------------------|

Verse 3
e|---------------------------------------------------------------------------|
B|---------------------------------------------------------------------------|
G|--------------------------------12-9-10------------------------------------|
D|12-13-14-13-14-11-13-14-11-13-15-------------------------------------------|
A|---------------------------------------------------------------------------|
E|---------------------------------------------------------------------------|

Verse 4- Just so y'all know verse 4&5 are both together but on different verses.
e|---------------------------------------------------------------------------|
B|---------------------------------------------------------------------------|
G|---------------------------------------------------------------------------|
D|11-12-11--14-11-12-13-14-16------------------------------------------------|
A|--------11-----------------------------------------------------------------|
E|---------------------------------------------------------------------------|

Verse 5 (Part 2 of verse 4)
e|---------------------------------------------------------------------------|
B|---------------------------------4-----------------------------------------|
G|----------------------------9-8-7------------------------------------------|
D|13-15-12-13-10-12-13-12-10-9-----------------------------------------------|
A|---------------------------------------------------------------------------|
E|---------------------------------------------------------------------------|

Chorus. (Ahh-ah,Ahh-ah,Ahh-ah-ah.) -Repeat this twice!)
e|---------------------------------------------------------------------------|
B|14-13-----14-13-----14-13--------------------------------------------------|
G|-------------------------12------------------------------------------------|
D|---------------------------------------------------------------------------|
A|---------------------------------------------------------------------------|
E|---------------------------------------------------------------------------|

Verse 6 (Do verse 4 and 5 again basically....)
e|---------------------------------------------------------------------------|
B|---------------------------------------------------------------------------|
G|---------------------------------------------------------------------------|
D|11-12-11--14-11-12-13-14-16------------------------------------------------|
A|--------11-----------------------------------------------------------------|
E|---------------------------------------------------------------------------|

Verse 7 (Part two of verse 6)
e|----------------------------------

Dont Dream Its Over Acoustic chords – Crowded House V2

 Standard Tuning EADGBe 


 D#sus2  - x68866


Intro:  D#sus2 


Verse 1: 

 D#sus2 Cm G# G    
There is freedom within there is freedom without, Try to catch the deluge in a paper cup
 D# Cm G#                                    
There's a battle ahead many battles are lost, but you'll never see the end of the road-
               G 
-while you're travelling with me


Chorus 1: 

 G# A# D# Cm 
Hey now, hey now don't dream it's over
 G# A# D# Cm 
Hey now, hey now when the world comes in
 G# A# D# Cm 
They come, they come, to build a wall between us
 G# G# A# 
We know they won't win


Verse 2:

 D#sus2 Cm G# G       
Now Im towing my car,theres a hole inthe roof,my possessions r causin me suspicion but theresno proof
 D# Cm G# G 
In the paper today tales of war and of waste, but you turn right over to the T.V. page


Chorus 2: 

 G# A# D# Cm 
Hey now, hey now don't dream it's over
 G# A# D# Cm 
Hey now, hey now when the world comes in
 G# A# D# Cm 
They come, they come, to build a wall between us
 G# G# A# 
We know they won't win


Verse 3:

 D#sus2 Cm G# G 
Now I'm walking again to the beat of a drum, and I'm counting the steps to the door of your heart
 D# Cm G# G   
Only the shadows ahead barely clearing the roof, get to know the feeling of liberation and relief


Chorus 3: 

 G# A# D# Cm 
Hey now, hey now don't dream it's over
 G# A# D# Cm 
Hey now, hey now when the world comes in
 G# A# D# Cm 
They come, they come, to build a wall between us
 G# G# A# 
We know they won't win




(end)

Dream In My Head chords – yael naim

 Bm 
I’ve got a dream in my head
 Bm 
Just waiting for the day
              D F#m 
Just waiting for the day
        Bm  
To be born

 Bm  
I’ve got a seed in my hand
 Bm  
Just looking for a way
              C G  
Just looking for a way
     Bm  
To grow strong

 C G Bm       
I cross the water, I cross the land
 C G Bm 
    I let other people with me die
    C G Bm  
And I search for answers, wandering to find
   C F#m F#M  
A way to reveal the lies behind

              Bm D G F#m         
I have the strongest feeling that I should try
           Bm G F#m Em 
I got to know myself now I could cry
             Bm D G F#m  
This is the end of pretending that I know why
            Bm G F#m Em Bm  
I have to lose myself, I no longer try to hide


 Bm  
I’ve got a story to tell
 Bm 
Just waiting for the day
              D F#m  
Just waiting for the day
        Bm  
To be told

 Bm  
I’ve got this anger and pain
 Bm  
Just waiting for my shame
              C G 
Just waiting for my blame
    Bm  
To get old

 C G Bm       
I saw some children playing with guns
 C G Bm 
    I can’t believe what we’ve become
     C G Bm  
And I found some letters written by God
 C F#m F#M  
   They were signed with our own blood


             Bm D G F#m         
I have the strongest feeling that I disguise
          Bm G F#m Em 
I got to know myself now I could die
             Bm D G F#m         
This is the end of the way that led me to life
             Bm G F#m Em Bm  
Now I might lose myself but no longer need to hide

 Bm G Bm G 
So I might lose myself
 Bm 
I no longer
 Em F#M 
No longer need to hide

                   Bm D G F#m         
Now I have this strongest feeling that I decide
           Bm G F#m Em 
I got to know me better then I could die
            Bm D G F#m         
This is the end of the way that led me to life
             Bm G F#m Em           
Now I might lose myself but no longer need
    F#m Em           
No longer need
    F#m Em           
No longer need
    F#m Em Bm 
I no longer need to hide 

When I Dream chords – Amasic

 Intro

 Am F G Em Am F G Am 
As I'm lying in my bed
 G Am 
Trying to forget
 F G 
The things is said
 Am F G 
I can't seem to figure out
                  Am 
Why I can't be me
 F G 
Or live without
                    F Am 
Feeling like the whole World is judging me
 G F G 
Feeling like im not the only one

 
 Am F 
When I dream at night
   G 
I feel alive
          F 
And I can win the fights
    G 
And live for myself
           F C G 
But when I wake up everything stops
       F G 
I must open up my eyes
                   Am F G   
And keep it all inside
 Em Am F G 
keep it all inside


 Am F G 
They said: time will make you change
 Em Am F G 
But what if I don't, what if I can't?
 Am F G 
I will try to make you laugh
 Em Am F G F 
Or try to be like you 'cause that's the way I've found to make it through
            Am 
But it's not right
 G F G 
Tell me I am not the only one


 Am F 
When I dream at night
   G 
I feel alive
          F 
And I can win the fights
    G 
And live for myself
           F C G 
But when I wake up everything stops
       F G 
I must open up my eyes


 F 
Where do I belong?

I feel so alone
  Am G 
I'm watching my life passing me by
 F 
I won't run and hide
 
I don't wanna lie
  G 
I wish someone would understand

              F Am 
What if the whole world is just like me
                     F G 
Trying to find the place where they fit in?


 Am F 
When I dream at night
   G 
I feel alive
          F 
And I can win the fights
    G 
And live for myself
 Am F 
When I dream at night
   G 
I feel alive
          F 
And I can win the fights
    G 
And live for myself
           F C G 
But when I wake up everything stops
       F G 
I must open up my eyes
       F G 
I must open up my eyes

Dairybeat – All I Have To Do Is Dream – Everly Brothers Cover chords

 DAIRYBEAT: ALL I HAVE TO DO IS DREAM (B. Bryant) 4/4 – 96 

Intro:

/ (Break)
 D   | D Bm   | G A7     | D Bm   | G A7 
    DREA-M,   DREAM, DREAM, DREAM. DREA-M,   DREAM, DREAM, DREAM.

Verse 1:

    | D Bm   | Em A          | D Bm   | Em A 
WHEN I WANT YOU,    IN MY ARMS. WHEN I WANT YOU,    AND ALL YOUR CHARMS.

    | D Bm        | G A7     | D Bm   | G A7 
WHEN-EVER I WANT YOU, ALL I HAVE TO DO IS  DREA-M,   DREAM, DREAM, DREAM.

Verse 2:

    | D Bm   | Em A          | D Bm   | Em A 
WHEN I FEEL BLUE,   IN THE NIGHT. AND I NEED YOU,    TO HOLD ME TIGHT.

    | D Bm        | G A7    | D G   | D Am7 D7 |
WHEN-EVER I WANT YOU, ALL I HAVE TO DO IS DREA -  M.

Chorus:

 G                    | F#m                      | Em A          | D Am7 D7 |
I CAN MAKE YOU MINE, TASTE YOUR LIPS OF WINE, ANYTIME,  NIGHT OR DAY.

 G               | F#m               | E7                 | A G F#m Em 
ONLY TROUBLE IS,    GEE WHIZ, I'M DREAMING MY LIFE A-WAY.   (I…)

Verse 3:

 | D Bm   | Em A      | D Bm   | Em A 
I NEED YOU SO,     THAT I COULD DIE. I LOVE YOU SO,     AND THAT IS WHY.

    | D Bm        | G A7    | D Bm   | G A7    |
WHEN-EVER I WANT YOU, ALL I HAVE TO DO IS DREA-M,   DREAM, DREAM, DREAM,

 D G   | D Am7 D7 |
DREA -  M.

Chorus:

 G                    | F#m                      | Em A          | D Am7 D7 |
I CAN MAKE YOU MINE, TASTE YOUR LIPS OF WINE, ANYTIME,  NIGHT OR DAY.

 G               | F#m               | E7                 | A G F#m Em 
ONLY TROUBLE IS,    GEE WHIZ, I'M DREAMING MY LIFE A-WAY.   (I…)

Verse 4 + Outro:

 | D Bm   | Em A      | D Bm   | Em A 
I NEED YOU SO,     THAT I COULD DIE. I LOVE YOU SO,     AND THAT IS WHY.

    | D Bm        | G A7    | D Bm   | G A7    |
WHEN-EVER I WANT YOU, ALL I HAVE TO DO IS DREA-M,   DREAM, DREAM, DREAM,

                                                            / (Break)
 D Bm   | G A7     | D Bm   | G A7   | D 
DREA-M,   DREAM, DREAM, DREAM. DREA-M,   DREAM, DREAM, DREA-M.


Tab by: DAIRYBEAT (André H. Hofman, Purmerend, Netherlands).
FREE* Dairybeat ORIGINALS, COVERS and BACKING TRACKS on:
http://www.soundclick.com/bands/default.cfm?bandID=137360&content=music

https://www.youtube.com/user/Dairybeat

The Post War Dream chords – Pink Floyd V3

 Pink Floyd  The Post War Dream 


 Bb C F Bb/F F Bb C Bb/F F Bb/F F Bb 
Tell me true, tell me why was Jesus crucified?

 C C7 F 
Is it for this that daddy died?

 Bb/F F 
Was it you? Was it me?

       Bb 
Did I watch too much T.V.?

           C F Bb/F 
Is that a hint of accusation in your eyes?

 F 
If it wasn't for the Nips

 F7 Bb 
Being so good at building ships,

     C C9 F 
The yards would still be open on the Clyde.

                              F7 
And it can't be much fun for them

   Bb 
Beneath the rising sun

      C C7 F 
With all their kids committing suicide.

              Bb F 
What have we done, Maggie what have we done?

               Bb 
What have we done to England?

 C F A 
Should we shout, should we scream,

       Bb Bbm F/C Dm7 
"What happened to the post war dream?"

 Gm7 C7 
Oh, Maggie,

        C7+ F C Bb F 
Maggie what have we done?

Dream Tabs by Before Their Eyes

 : Joshua Garcia (joshuag523@aol.com)

Tabs for the song: Dream by Before Their Eyes
Please rate and let me know if you have any corrections. Thank you.


Tuning: Drop C (C G C F A D)


Intro
Guitar 1/2:
D||-----------------------------------|------------------------------|
A||-----------------------------------|------------------------------|
F||-----------------------------------|------------------------------|
C||--0--7\----3~--3~-----10--10\-5/7--|--0--7\----3~--3~-----3--1-1--|
G||--0--5\--3-3~--3~---0-7---8-\-3/5--|--0--5\--3-3~--3~---0-3--1-1--|
C||--0------3-3~--3~---0--------------|--0------3-3~--3~---0-3--1-1--|
            .          .                        .          .


D||-----------------------------------------|
A||-----------------------------------------|
F||-----------------------------------------|
C||--0--7\----3~--3~-----10-10-10-10-10-10--|
G||--0--5\--3-3~--3~---0-7--7--7--7--7--7---|
C||--0------3-3~--3~---0--------------------|
            .          .


Guitar 1:
D||---------------------------------------|
A||---------------------------------------|
F||------------------10-10-10-10-5-5-5-5--|
C||--8-8-8-8-8-8-8\7-10-10-10-10-5-5-5-5--|
G||--8-8-8-8-8-8-8\7-8--8--8--8--3-3-3-3--|
C||--8-8-8-8-8-8-8\7----------------------|


Guitar 2:
D||-----------------------------------|
A||-----------------------------------|
F||-----------------------------------|
C||--8-8-8-8-8-8-8\7-7-7-7-7-5-5-5-5--|
G||--8-8-8-8-8-8-8\7-8-8-8-8-3-3-3-3--|
C||--8-8-8-8-8-8-8\7------------------|



Verse
Guitar 1/2:
D||--------------------------------------------------------------------------------|
A||--------------------------------------------------------------------------------|
F||--------------------------------------------------------------------------------|
C||--------------------------------------------------------------------------------|
G||--------------------------------------------------------------------------------|
C||--0-0-----0-0---0-0---0-0-0-8-8-8----8---8----8-8-8-8\3-3-3----3-3---3-3---3-3--|


D||---------------------------------------|
A||---------------------------------------|
F||---------------------------------------|
C||---------------------------------------| x2
G||--------------5------------------------|
C||--8-0-0-3-0-0---0-0-3-0-0-10-10-10-10--|



Chorus
Guitar 1:
D||-----------------------------------|-----------------------------------|
A||----5~---6~---5~--------3~---------|-----------------------------------|
F||--7~-------------0~5~--------------|--5-5-5----------------------------|
C||-----------------------------------|--------3-3-3-2-2-2-0-0-0-2-2-3-3--|
G||-----------------------------------|-----------------------------------|
C||-----------------------------------|-----------------------------------|


D||-----------------------------------|--8-8-8----------------------------|
A||----5~---6~---5~--------3~---------|--------6-6-6-5-5-5\3-3-3/5-5-6-6--|
F||--7~-------------0~5~--------------|-----------------------------------|
C||-----------------------------------|-----------------------------------|
G||-----------------------------------|-----------------------------------|
C||-----------------------------------|-----------------------------------|


D||-----------------------------------|-----------------------------------|
A||----5~---6~---5~--------3~---------|-----------------------------------|
F||--7~-------------0~5~--------------|--5-5-5----------------------------|
C||-----------------------------------|--------3-3-3-2-2-2-0-0-0-2-2-3-3--|
G||-----------------------------------|-----------------------------------|
C||-----------------------------------|-----------------------------------|


D||-----------------------------------|--8-8-8----------------------------|
A||----5~---6~---5~--------3~---------|--------6-6-6-5-5-5-6-6-6/8~----\--|
F||--7~-------------0

Fever Dream Tabs by Iron And Wine V5

 Fever Dream
Iron and Wine

Standard Tuning
Capo 2nd fret

Intro/Verse

e|--2--------------------2-----------------------|
B|--------0--3--------0-----------0--3-----------|
G|-----0-----------0-----------0-----------0-----|
D|--2-----------2-----------2-----------2-----0--|
A|-----------------------------------------------|
E|-----------------------------------------------|

e|-----------------------------------------------|
B|--3--------3-----------3-----------3-----------|
G|-----0-----------0-----------0-----------0-----|
D|--------4-----------4-----------4-----------0--|
A|--3-----------3-----------3-----------3--------|
E|-----------------------------------------------|

e|-----------------------|-----------------------|
B|--1--------3-----------|--3--------3-----------|
G|-----0-----------0-----|-----0-----------0-----|
D|--------2-----------2--|--------4-----------4--|
A|--0-----------0--------|--2-----------2--------|
E|-----------------------|-----------------------|

e|-----------------------------------------------|
B|--3--------3-----------3-----------3-----------|
G|-----0-----------0-----------0-----------0-----|
D|--------5-----------5-----------5-----------0--|
A|--3-----------3-----------3-----------3--------|
E|-----------------------------------------------|

x's 2

Chorus:

e|-----------------------------------------------|
B|--1--------3-----------1-----------3-----------|
G|-----0-----------0-----------0-----------0-----|
D|--------2-----------2-----------2-----------2--|
A|--0-----------0-----------0-----------0--------|
E|-----------------------------------------------|

e|--0------------------0---------------------|
B|----------3---------------------3----------|
G|-----0/2--------0/2--------0/2--------2\0--|
D|--0----------0----------0----------0-------|
A|-------------------------------------------|
E|-------------------------------------------|

x's 3

e|-----------------------------------------------|
B|--1--------3-----------1-----------3-----------|
G|-----0-----------0-----------0-----------0-----|  
D|--------2-----------2-----------2-----------2--|
A|--0-----------0-----------0-----------0--------|
E|-----------------------------------------------|

e|-----------------------------------------------|
B|--0--------3-----------1-----------1-----------|
G|-----0-----------0-----------0-----------0-----|  
D|--------0-----------0-----------0-----------0--|
A|-----------------------------------------------|
E|--3-----------3-----------3-----------3--------|

e|--------------------------3-----------3-----|
B|--0-----------3-----------------------------|
G|--------0-----------0-----------0-----------|
D|-----------0-----------0-----------0--------|
A|--------------------------------------------|
E|-----3-----------3-----------3-----------3--|

*Lead:

e|--7--|--7--8--8/10--8--7--7/8--7-----|
B|-----|----------------------------8--|
G|-----|-------------------------------|
D|-----|-------------------------------|
A|-----|-------------------------------|
E|-----|-------------------------------|

e|---------7------------------0--|------7---------8--|
B|--8--10-----10--8--8/10--8-----|--10-----8--10-----|
G|-------------------------------|-------------------|
D|-------------------------------|-------------------|
A|-------------------------------|-------------------|
E|-------------------------------|-------------------|

e|-----7--|--7--8--8/10--8--7--7/8--7-----|
B|--10----|----------------------------8--|
G|--------|-------------------------------|
D|--------|-------------------------------|
A|--------|-------------------------------|
E|--------|-------------------------------|

e|---------7------------------0--|------7------------|
B|--8--10-----10--8--8/10--8-----|--10-----8--10--8--|
G|-------------------------------|-------------------|
D|-------------------------------|-------------------|

Sonnys Dream chords – Signal Hill

 C 
Sonny don’t go away, I am here all alone

 C F C 
And your daddy’s a sailor, who never comes home
 
                G 
And the nights get so long, and the silence goes on

                F C G 
And I’m feeling so tired, I’m not all that strong

- - -

 C 
Sonny lives on a farm, in the wide open space

 C F C 
And you can take off your sneakers, and give up the race

                G 
And you can lay yourself down, by a sweet river bed

           F C G 
But Sonny always remembers, what it was his mama said, and she said

- - -

 C 
Sonny don’t go away, I am here all alone

 C F C 
And your daddy’s a sailor, who never comes home
 
                G 
And the nights get so long, and the silence goes on

                F C G 
And I’m feeling so tired, I’m not all that strong

- - -

 C 
Sonny caries a load, He is barely a man

 C F C 
There ain’t nothin’ to do, still he does what he can

             G 
And he watches the sea from a room by the stairs 

         F C G 
The waves keep on rollin'  they’ve done that for years

- - -

 C 
Sonny don’t go away, I am here all alone

 C F C 
And your daddy’s a sailor, who never comes home
 
                G 
And the nights get so long, and the silence goes on

                F C G 
And I’m feeling so tired, I’m not all that strong

- - -

 C 
It’s a hundred miles to town, Sonny’s never been there

 C F C 
Yet he walks to the highway and stands there and stares

               G 
And the mail comes at four and the mail man is old

             F C G 
But he still dreams his dreams of silver and gold


- - -

 C 
Sonny don’t go away, I am here all alone

 C F C 
And your daddy’s a sailor, who never comes home
 
                G 
And the nights get so long, and the silence goes on

                F C G 
And I’m feeling so tired, I’m not all that strong

- - -

 C 
Sonny’s dreams can’t be real


They’re just stories he’s read


They’re just stars in his eyes

          F C 
Just dreams in his head

          G 
He is hungry inside for the wild world outside

            F C G 
And I know I can’t hold on, I’ve tried, and I’ve tried, and I’ve tried

- - -

 C 
Sonny don’t go away, I am here all alone

 C F C 
And your daddy’s a sailor, who never comes home
 
                G 
And the nights get so long, and the silence goes on

                F C G 
And I’m feeling so tired, I’m not all that strong

I Had A Dream Last Night chords – Jonathan Reid Gealt

 The song "I Had a Dream Last Night" from the absolutely STUNNING album "Here for 
You: Ballads For Broadway Impact" written by Johnathan Reid Gealt, preformed by 
Rachel Potter. I'm still unsure about the bridge. Let me know if anyone can figure 
that part out any better!


No Capo. (I know in the video it is played with one, so just transpose it if you'd like to.)

 Intro:  C# , F# C# , F# C# , F# C# , F# 
I had a dream last night
          C# ,  F# ,       G# 
I sailed away on a wooden ship
                 C# ,        F# C# ,  F# 
and in this dream I had last night
                      C# F# G# 
you were my knight in shining armour
          Bbm ,  F# 
I was drowning
      C# G# 
in water too deep
    Bbm F# C# G# 
the light was fading on me
      F#     (pluck chord apart)
                                      C# , F# C# , F# 
but then someone was there

                     C# , F# C# , F# 
they grabbed ahold of my arm
                     C# F# ,           G# 
and swam us up towards the growing light
                     C# , F# C# , F# 
and whern we got to the surface
                  C# ,  F# ,  G# 
they build a ship to save my life

         Bbm ,  F# 
so I wont drown
      C# G# 
in water too deep
    Bbm F# C# G# 
the light wont fade on me  
     F#    (Pluck)           C# F# C# F# 
because you were there

           F#        
you said get on my ship and sail across the sea
                                         C# 
go visit all the places where I once wanted to be
 Bbm  
you must go and take this journey
               G# 
and you have to go alone
     F# 
go sail uncharted waters 
                C# 
and then mark them as your own

                Bbm G# 
you must never give up
                    F# C# F# C# 
I have faith in you
                   F# C# F# C# 
I have faith in you

            C# , F# C# , F# 
I had a dream last night
          C# ,  F# ,       G# 
I sailed away on a wooden ship
                 C# ,        F# C# ,  F# 
and in this dream I had last night
                      C# F# G# 
you were my knight in shining armour
          Bbm ,  F# 
I was drowning
      C# G# 
in water too deep
    Bbm F# C# G# 
the light was fading on me
       F# C# F# ,  G#  end on  C# 
but then, mom, there you were.

Dream High Theme chords – Misc Television

 Key:  E 
Capo 4 - Play C
   C F Dm7 G  
I dream high nan kkumeul kkujyo himdeul ttaemyeon nan nuneul gamgo 
           Em Am7 Dm7 G      
kkumi irwojineun geu sunganeul gyesok tteoollimyeo ireonajyo
 C F Dm7 G 
duryeoumui kkeuteseo nan oneuldo heundeullijyo 
                   Em Am7 Dm7 G   
tteoreojilkka bwa naraoreuji motaneun eorin saecheoreom 
 C F Dm7 G 
jakku naega hal su inna nae kkumi irwojilkka 
                        Em Am7 Dm7 G   
naeditneun georeum han georeum georeumi dasi duryeowo jil ttaemada
     C F Dm7 G  
* I dream high nan kkumeul kkujyo himdeul ttaemyeon nan nuneul gamgo 
           Em Am7 Dm7 G     
kkumi irwojineun geu sunganeul gyesok tteoollimyeo
         C F Dm7 G 
I can fly high naneun mideoyo eonjenganeun jeo haneurwiro 
           Em Am7 Dm7 G     
nalgaereul pyeogo nugubodado jayuropge nopi nara oreulgeoeyo
 C F Dm7 G 
neomeojin nal ireukyeo jul yonggiga pillyohajyo 
                      Em Am7 Dm7 G   
meonjireul teolgo dasi ireona tto han beon ttwieogal yonggiga 
 C F Dm7 G 
dasi han beon nareul mitgo naui unmyeongeul mitgo 
                           Em Am7 Dm7 G   
modeun geol geolgo nae kiboda nopeun byeogeul ttwieo neomeulgeoeyo *
(Rap) Dream high a chance to fly high apeumdeureun ijen modu da bye bye 
haneure inneun jeo byeoldeulcheoreom nopi narabwa ni kkumdeureul 
pyeolchyeo boneun geoya time for u to shine ijebuteo sijagiya gotta make em mine 
ni soneuro irwoga mirael duryeowo hajima ijen himkkeot jasinitge georeoga 
Destiny sungmyeongiji meomchul su eomneun unmyeongi 
jigeum uri nunape pyeolchyeojiji igeon neoreul wihan whole new fantasy 
geureoni ijebuteo yeogi nae soneul jaba uriui mokpyoneun jigeumbuteo hana 
kkumgwa mirae pogihaji anha jeormeum yeoljeong yeogi moduda Dream High *

American Dream chords – Praise And Worship

 D Bm D 
All work no play may have made Jack a dull boy
                 Bm D       
But all work no God has left Jack with a lost soul
                D 
But he's moving on full steam
 Bm D 
He's chasing the American dream
                               Bm             
And he's gonna give his family finer things


 D ... Bm ...x2

verse 1
 D Bm D 
Not this time son I've no time to waste
           Bm D 
Maybe Tomorrow we'll have time to play 
                        Bm D 
And then he slips into his new BMW
                           Bm E 
And drives farther and farther and farther away

Pre-chorus 1
 E G D 
'Cause  he works all day and tries to sleep at night 
 E G D 
He says things will get better; better in time

Chorus 
 D Gm Bm           
'Cause he works and he builds with his own two hands
 D Gm Bm                   
And he pours all he has in a castle made with sand 
 D Gm Bm              
But the wind and the rain are comin' crashing in 
 D Gm D D Bm Gm 
Time will tell just how long his kingdom stands
                D Bm Gm 
His kingdom stands

Verse 2
 D Bm 
His American dream is begining to seem 
 D Bm 
More and More like a nightmare
                        D 
with every passing day
                                  Bm 
"Daddy, can you come to my game?" 
                                    D 
"Oh Baby, please don't work late."
                          Bm 
Another wasted weekend
                            E 
And they are slipping away
Pre-Chorus 2
 E G D 
'Cause he works all day and lies awake at night 
 E G                 
He tells them  things will get better
                                     D 
It'll just take a little more time

Chorus

Verse 3
 D Bm           
He used to say, "Who ever died with the most toys wins."
 D Bm 
But if he loses his soul, what has he gained in the end
 D 
I'll take a shack on a rock 
 Bm E 
Over a castle in the sand


Pre-chorus 3
 E G D 
Now he works all day and cries alone at night 
 E G                 
It's not getting any better 

Looks like he's running out of time

Chorus

Outro 
 D 
All they really wanted was you
 D 
All they really wanted was you
 D 
All they really wanted was you

Long Lost Dream chords – Mikey Wax

 : thepenguinoid
Email: thepenguinoid
Author's Note: Listen to the song to get the rhythms and strumming patterns down, as
well as the timing and syncopation of the words. Each chord generally represents one full
measure of four, except for at the lyrics "Long lost dream." Repeat means repeat the 
whole line, and "x2" means play the chord for two measures. Trust me, you'll get it easily if
you listen to the song a few times. I recommend using barre chords for the most part, 
but figure out what works best for you.

[Intro]

 B C#m G#m E  (Repeat)

[Verse]
 F# G#m E  x2
  I wanna run through this crowd, I want your hand in hand with mine,
 F# G#m E  x2
  I wanna know how it feels, I wanna say I feel alive,
 F# G#m E  x2
  I wanna look in your soul and feel you looking back at me, give your
 F# G#m E E (hold)
Love sweet love, to me,    come set me free

[Chorus]
 G#m E B F# 
  I wanna feel     something inside,
 G#m E B F# 
  That makes me real-lize I'm alive,
 G#m F# E B 
  I wanna know what do you need to believe, in this
 G#m A#m E F# 
long  lost  dream    I see

[Repeat Intro]
 B C#m G#m E 

[Verse]
 F# G#m E  x2
  Been livin' in black and white, oh won't you bring me back to life,
 F# G#m E  x2
  I wanna feel a lover's heart 'til all the heartache makes me cry,
 F# G#m E  x2
  I wanna run on the edge, don't wanna stand here in-between, give your
 F# G#m E E  (hold)
Love sweet love, to me,    come set me free

[Chorus]
 G#m E B F# 
  I wanna feel     something inside,
 G#m E B F# 
  That makes me real-lize I'm alive,
 G#m F# E B 
  I wanna know what do you need to believe, in this
 G#m A#m E F# 
long  lost  dream    I see

[First two measures of Intro, then right into Bridge]

 B C#m 

[Bridge]
 G#m E 
Life, love, pain, you know it's all gonna
 B C#m 
Pass you by, if you keep waiting for some
 G#m E 
Perfect time, it's never perfect but I'm
 B C#m 
Losing touch, I wanna touch you will I
 G#m E B E 
Get enough, just wanna love you tonight,
 B E 
Oh, oh

[Chorus]
 G#m E B F# 
  I wanna feel     something inside,
 G#m E B F# 
  That makes me real-lize I'm alive,
 G#m F# E B 
  I wanna know what do you need to believe, in this
 G#m A#m E F# 
long  lost  dream    I see

[Repeat Intro]
 B C#m G#m E 

[Outro]
 F# G#m E  x2 (Repeat)

End on a B chord

Walking On A Dream chords – Boy And Bear

 Walking On A Dream - Boy & Bear

 Am Em G D Am Em G D 
Walking on a dream
 Am Em G D 
How can I explain
 Am Em G D 
Talking to myself
 Am Em G D 
Will I see again

 Am Em G D 
We are always running for the thrill of it thrill of it
 Am Em G D 
Always pushing up the hill searching for the thrill of it
 Am Em G D 
On and on and on we are calling out and out again
 Am Em G D ........
Never looking down I'm just in awe of what's in front of me

Pause

 C G Em 
Is it real 
                            D 
When two people become one

 Am Em G D Am Em G D 
Thought I'd never see
 Am Em G D 
The love you found in me
 Am Em G D 
It's changing all the time
 Am Em G D 
Oh I'm Living in a rhythm where the rhythm's working overtime

 C Em D 
We are always running for the thrill of it thrill of it
 C Em D 
Always pushing up the hill searching for the thrill of it
 C Em D 
On and on and on we are calling out and out again
 C Em D 
Never looking down I'm just in awe of what's in front of me

 C G Em 
Is it real 
                         D C 
When two people become one
               G Em 
I can feel it now
                       D C Em 
When two people become one
 G D C Em G D   
Catch me I'm falling down
 C Em G D C Em G D 
                          Catch me I'm falling down
 
 C Em G D 
Don't stop just keep moving on
 C Em G D 
I'm your shoulder lean upon
 C Em G D 
So come on deliver from inside
 C Em G D 
All we got is tonight till first light

 C G Em 
Is it real 
                         D C 
When two people become one
               G Em 
I can feel it now
                          D C Em 
When two people become one
 C G Em 
Is it real 
                         D C 
When two people become one
               G Em 
I can feel it now
                          D C Em 
When two people become one

 Am Em G D  x 4

 Am Em G D Am Em G D 
                       Catch me I'm falling down
 Am Em G D Am Em G D 
      

I Dream Of Christmas chords – Ariel Rivera

 I Dream Of Christmas
Ariel Rivera

   Intro:  C - Dm -; (3x)
           Bb -- G --

   C Dm 
   I dream of Christmas 
   C Dm 
   I dream of you 
   C Em F 
   I dream of all the holidays

   That we've been through

        Em Am 
   The cold December nights 
       Em Am 
   The way you'd hold me tight 
   Dm Dm7 
   Under the mistletoe we'd kiss 
           G 
   And my world would be in a state of bliss

   C Dm 
   I dream of Christmas 
   C Dm 
   I dream of you 
   C Em 
   And think of all the love 
           F 
   We've shared all these years

         Em Am 
   We'd light a Christmas tree 
             Em Am 
   While the carollers are singin' 
        Dm Dm7 
   And bells would be ringin' 
                G    
   Because of all the love that you've been givin'

           Refrain
   C F 
   Christmas and you
            C F 
   Should always be together
                   C Dm 
   I'll spend Christmas with you
        C A 
   In any kind of weather
   Dm G 
   You are the reason
            Em Am 
   For my wonderful season 
            Dm G 
   When I dream of Christmas, 
                C 
   I dream of you

   Interlude: C-Dm-Bb--G--;

   C Dm 
   I dream of Christmas 
   C Dm 
   I dream of you 
   C Em F 
   I dream of all the Christmases

   That we'll go through

        Em Am 
   Santa's bringin' holiday cheers
       Em Am 
   To all the little children
   Dm Dm7 
   While you bring me joy
           G 
   You're my gift, you're my toy

   (Repeat Refrain except Interlude)

   Ad lib:  C - Dm - Em - Am -

           Dm G 
   When I dream of Christmas 
                (Coda)
   I dream of you

   Coda:  C - Dm -; (4x)  C -

Wildest Dream Tabs by Journey

 Journey-Wildest Dream
---------------------

e|-----------------------|
H|-----------------------|
G|-----------------------|
D|--9999-77777777-5555---|   |Em|D|D|C|
A|--7777-55555555-3333---|
E|-----------------------|
 |                       |
e|-----------------------|
H|-----------------------|
G|-----7-9---7-9---7-9---|
D|--99-----9-----9-------|
A|-----------------------|
E|-----------------------|

e|------------------------------------|
H|------------------------------------|
G|------------------------------------|    
D|--99-9-9-9----------77-7-7-7-55-----|   |Em|G|D|C Am|
A|--77-7-7-7-55-5-5-5-55-5-5-5-33-77--|
E|-----------33-3-3-3-------------55--|



e|--------------------------------|
H|--------------------------------|
G|--------------------------------|
D|--------------------------------|  |G|
A|-55555--------------------------|
E|-33333...-----------------------|
 |                                |
 |                                |
 |                                |
e|------------7-------------------|
H|-------/6-5-------/6-5--6-8-6-5-|
G|--/7-6-------/7-6---------------|
D|--------------------------------|
A|--------------------------------|
E|--------------------------------|




e|---------------------|
H|---------------------|
G|---------------------|
D|--99999999-7777-4444-|  |Em|Em|D|H|
A|--77777777-5555-2222-|
E|---------------------|

e|----------------------|
H|-12...----12...--4444-|
G|-99999999-7777---4444-|
D|----------------------|
A|----------------------|
E|----------------------|


Solo:

e|----------|
H|----------|
G|----------|
D|----------|  |A|
A|-77777----|
E|-55555...-|



e|----------|
H|----------|
G|----------|
D|----------|  |G|
A|-55555----|
E|-33333...-|


e|----------|
H|----------|
G|----------|  |A|
D|----------|
A|-77777----|
E|-55555...-|



Z End:
e|----|
H|----|
G|----|
D|----|
A|-7--|
E|-5--|

Dream Over chords – Pure X

 Dream Over by Pure X (off of Pleasure) 


Each chord should basically be strummed once, with a lot of effects. Also, if  F#  
doesn't seem right, try  F#m . 


Intro:   B A E   (x4) 


Verse: 

 E A 
Baby I want every piece of you


                F#  
But you've been my friend so long, 


     A B   
you've known me for so long what can I do 


   E A 
to show you that I'm different than I was back then 


        F#         
And i think you might understand 


      A B 
god, I gotta make you understand if you can 


 E A 
and I know, I know you already got a man 


        F#   
but he'll never love you like I can 


      A B 
Nothing close to how I can 


               E 
I'll make you see


                     A 
I'll make you see yourself so differently 


                 E 
I'll set you free 


                          A  
Leave you lying right there next to me, singing... 



Outro:    B A E   (x6)