Tag: drowners

Youve Got It Wrong chords – Drowners

 Intro:
 E C#m E C#m A G#m C#m A G#m E C#m 
In a steamed, wet window of a public house,
 A G#m C#m C#m      
   I’m using it like a mirror and eyeing myself up.

 E A G#m F#m 
   And somewhere in the corner
       B  
He’s telling her a joke
 E A G#m F#m 
   And I had to stick the boot in
 B C#m 
Because that’s not how it goes.

 E C#m E C#m A G#m C#m 

She’s drinking down his laughter
And she don’t half love a drink.
For someone I never gave half a thought to
He don’t have make me think.

And somewhere in the corner
He’s telling her a joke
And I had to stick the boot in
Because that’s not how it goes.

Interlude and Bridge:
 C#m B A E 

You've got it wrong,
You've got it wrong,
Don't make me tell you girl.

She’s crying when I tell her
He won’t bother us no more
And it’ll give us time to wonder
If he’s ever lied before.

And somewhere in the corner
I’m telling her a joke
And she was crying laughing
Because that’s exactly how it goes.

Ends on C#m

Pure Pleasure intro Tabs – Drowners

 I can't figure out the chords but I think it is in D major
The riff occurs at various places throughout the song
e|-2-2-0-3-2-0-----------2-2-0-3-2-0-----------2-2-0-3-2-0------------2-2-0-3-2-0-2-2-0-3-2-0|
B|-------------3-3-3-2-3-------------3-3-3-2-3-------------3-3-3-2-3-------------------------|
G|-------------------------------------------------------------------------------------------|
D|-------------------------------------------------------------------------------------------|
A|-------------------------------------------------------------------------------------------|
E|-------------------------------------------------------------------------------------------|

Long Hair solo Tabs – Drowners

 Tabbed from Album version



1:08
E|-----------------------------------------------------------------------------||
B|------------3-5--------------3-5------------3-5------------------------------||
G|---4-4-2-0-------4--4-4-2-0------4--4-4-2-0------4--4-2-0--5-4-2-0--5-4-2-0-0||
D|-----------------------------------------------------------------------------||
A|-----------------------------------------------------------------------------||
E|-----------------------------------------------------------------------------||

Let Me Finish chords – Drowners V2

 Intro:
Play a G on the E string then
E|-3-3-3-3-3-3-5-5-5-5-5-5-5-0-0-0-0-0-0-0-0-0-0

 G Am Em G Am Em 
I’d cough along the avenue
             G Am 
Retracing steps that we once took
     Em G Am 
And here I am hooking arms with someone else
     Em G Am 
Who must remind me of you to some extent
 Em C 
Well I know it’s bad to see you but I let it slip
               Cadd9 
I let it slip

                  G Am Em 
When I feel the sweet caress of a familiar lower lip
        G Am 
That's dancing on my neck.
        Em 
And oh god I cannot control myself
     G Am Em 
The sweet caress of a familiar lower lip
        G Am 
That's dancing on my neck.
        Em C 
And oh god I cannot control myself

Interlude:
 G Am Em C   x2

  G Am Em G 
Well I know it’s bad to picture shadows watching you undress
              Am 
it’s nice to see you happy
         Em 
But nice you've got regrets
     G Am Em 
And ordinarily I want to make you jealous
                    C  
but I let it slip
               Cadd9 
I let it slip

                 G Am Em 
I feel the sweet caress of a familiar lower lip
        G Am 
That's dancing on my neck.
        Em 
And oh god I cannot control myself
     G Am Em 
The sweet caress of a familiar lower lip
        G Am 
That's dancing on my neck.
        Em C 
And oh god I cannot control myself

Interlude:
 G Am Em C   x2


                 G Am Em 
I feel the sweet caress of a familiar lower lip
        G Am 
That's dancing on my neck.
        Em 
And oh god I cannot control myself
     G Am Em 
The sweet caress of a familiar lower lip
        G Am 
That's dancing on my neck. 
        Em C G 
And oh god, oh god, oh god

Luv Hold Me Down Acoustic chords – Drowners

 Capo on 2nd fret

(Intro:  G Em Am )

 G Em Am 
In a simple skirt, you caused the ricochet

    G Em Am 
Of courting boys who watch you walk away

 Bm C 
But I don't live my life like you do,

    Bm C 
No I don't live my life like you do


Chorus:

    G B7 C 
So hold me down and never let me go,

     G B7 C 
The school boy grin that only goes to show,

      G D Em 
That I could never have such control,

 Em G 
Every time you leave, Every time you leave I wanna go

(Intro again)

(Same as first verse)
Rip me up and bully me in jest,
Like the afternoons where you spent sleeping on my chest 
But I don't live my life like you do,
No I don't live my life like you do

So hold me down and never let me go,
The school boy grin that only goes to show,
That I could never have such control
Every time you leave, Every time you leave I wanna go

(Not sure about this one guitar part but any contributions are welcome!
 Chords that run after it are Em Bm & after the guitar part again Em D)

So hold me down and never let me go,
The school boy grin that only goes to show,
That I could never have such control,
Everytime you leave, Everytime you leave I wanna go

Cigarette Burns Forever Tabs by Drowners

 Originally by Adam Green, covered by Drowners

Intro:
      C               Em              F             G
|---0---0-----------0---0-----------1---1----------3---3----------|
|---1---1-----1-----0---0-----0-----1---1----1-----0---0---0------|
|-----0-----0---0-----0-----0---0-----2----2---2-----0---0---0----|
|-----------------------------------------------------------------|
|-----------------------------------------------------------------|
|-----------------------------------------------------------------|

      G7
|---1---1----------|
|---0---0-----0----|
|-----0-----0---0--| 
|------------------|
|------------------|
|------------------|

      C               Em              F             G
|---0---0-----------0---0-----------1---1----------3---3----------|
|---1---1-----1-----0---0-----0-----1---1----1-----0---0---0------|
|-----0-----0---0-----0-----0---0-----2----2---2-----0---0---0----|
|-----------------------------------------------------------------|
|-----------------------------------------------------------------|
|-----------------------------------------------------------------|
   Cigarette burns forever, the message is spliced together

      C               Em              F             G
|---0---0-----------0---0-----------1---1----------3---3----------|
|---1---1-----1-----0---0-----0-----1---1----1-----0---0---0------|
|-----0-----0---0-----0-----0---0-----2----2---2-----0---0---0----|
|-----------------------------------------------------------------|
|-----------------------------------------------------------------|
|-----------------------------------------------------------------|
   Now I would never let her, but where did people go to get her?

      C               Em              F             G
|---0---0-----------0---0-----------1---1----------3---3----------|
|---1---1-----1-----0---0-----0-----1---1----1-----0---0---0------|
|-----0-----0---0-----0-----0---0-----2----2---2-----0---0---0----|
|-----------------------------------------------------------------|
|-----------------------------------------------------------------|
|-----------------------------------------------------------------|
   You took me to a private party, and swore that they would not card me

      C               Em              F             G
|---0---0-----------0---0-----------1---1----------3---3----------|
|---1---1-----1-----0---0-----0-----1---1----1-----0---0---0------|
|-----0-----0---0-----0-----0---0-----2----2---2-----0---0---0----|
|-----------------------------------------------------------------|
|-----------------------------------------------------------------|
|-----------------------------------------------------------------|
  Drive careful lest they hear you, when all the time they learnt to fear you

      G7
|---1---1----------|
|---0---0-----0----|
|-----0-----0---0--| 
|------------------|
|------------------|
|------------------|

      C               Em              F             G
|---0---0-----------0---0-----------1---1----------3---3----------|
|---1---1-----1-----0---0-----0-----1---1----1-----0---0---0------|
|-----0-----0---0-----0-----0---0-----2----2---2-----0---0---0----|
|-----------------------------------------------------------------|
|-----------------------------------------------------------------|
|-----------------------------------------------------------------|
   The sidewinder drinks and gambles, the gold digger strikes his damsels

      C               Em              F             G
|---0---0-----------0---0-----------1---1----------3---3----------|
|---1---1-----1-----0---0-----0-----1---1----1-----0---0---0------|
|-----0-----0---0-----0-----0---0-----2----2---2-----0---0---0----|
|-----------------------------------------------------------------|
|-----------------------------------------------------------------|
|--------------------------------------------------------------

Luv Hold Me Down chords – Drowners

 i don't know if the 2nd riff is correct, i was just playing by ear! also, the riff 
in the intro has 2 parts, that's why there's 1 and 2 yup

Intro (Riff): 
1 -  A  (8 beats)
2 -  A  -  F#m  -  Bm  (2x)

 A F#m Bm  
In a simple skirt, you caused a ricochet

 A F#m Bm 
Of courting boys who watched you walk away

     A C#m D 
But I don't live my life like you do

     A C#m D D 
No, I don't live my life like you do

[chorus]

     A F#m Bm 
So, hold me down and never let me go

 A F#m Bm    
A schoolboy grin that only goes to show

      A E F#m 
That I could never have such control

 Bm D 
Every time you leave, every time you leave I wanna go

[repeat 2nd part of Riff]

 A F#m Bm 
Rip me up and bully me in jest

           A F#m Bm 
About the afternoons you spent sleeping on my chest

     A C#m D 
But I don't live my life like you do

     A C#m D D 
No, I don't live my life like you do


     A F#m Bm  
So, hold me down and never let me go

   A F#m Bm 
A schoolboy grin that only goes to show

      A E F#m 
That I could never have such control

 Bm D                
Every time you leave, every time you leave I wanna go

[2nd riff] (4 beats each chord)

 Bm  -  C#m  -  F#m  -  Bm  -  Bm  -  C#m  -  F#m  -  D A F#m Bm 
So, hold me down and never let me go

   A F#m Bm 
A schoolboy grin that only goes to show

      A E F#m 
That I could never have such control

 Bm D A 
Every time you leave, every time you leave I wanna go