Tag: el

Footprints chords – El Cuero

 Intro:
|  D  |  Am7  |  D  |  Am7  |
|  D  |  Am7 G6/B C  |  D  |


Verse:

 Am7 D 
Quiet time, see the tail lights

 Am7 D 
No one minds, when we're coming home

 Am7 D 
Close your eyes, light is darkness

 Am7 D 
In a dream, we'll make this last forever



Chorus:

 G D 
Waves come crashing in

                                    Em 
We're making footprints in the sand

 Bm Am 
Makes you stop and wonder

 G 
You know sometimes

       D Em 
It's easier to be left instead of right

 Bm Am G D Am7 
Better hide our worries from the sun

 D Am7 G6/B C 


Verse:

 Am7 D 
Here i am, last man standing

 Am7 D 
The devil soon, finds work for idle hands

 Am7 D 
Sleepy eyes, doll house roses

 Am7 D 
Hold on, cause i'm throwing out a lifeline




-----------------CHOROUS----------------



Bridge:

 F 
How are you doing?

                             D    
Are you thinking about him now?

 F 
  Say how are you doing?

                             D Am7 D 
Are you thinking about him nooooooow?

Solo:
 D Am7 D Am7  .................  D 

SOLO: Rhythm guitar keeps on playing

D and Am7 until it lands on a D building 

Up to a double chorous.


Chorous x 2:

 G D 
Waves come crashing in

                                 Em 
We're making footprints in the sand

 Bm Am 
Makes you stop and wonder

 G 
You know sometimes

        D Em  
It's easier to be left instead of right

 Bm Am 
Better hide our worri - ies


 G D  
Waves come crashing in

                                 Em  
We're making footprints in the sand

 Bm Am 
Makes you stop and wonder

 G          
You know sometimes

       D Em  
It's easier to be left instead of right

 Bm Am G        (OUTRO)
Better hide our worries from the sun


Outro:

 D Am7 D Am7 D Am7 G6/B C D  x

Una Noche En El Torito chords – Pepe Problemas

 Am C G 
Juxi, el hombre calvo

 Am C G 
Juxi, borracho pelon


 Am F 
Tienes una calva que dejaria ciega al sol

 C G 
Como te encanta beber de ese licor

 Am F C 
Por eso alucinas que no estas pelo-o-on

                 G 
A nadie engañas, degenerado


  Fmaj7 Dm7 
Y fue una larga noche en el torito

 Fmaj7 C 
Y fue una larga noche amigo mio

 Fmaj7 Dm7 Fmaj7 C 
Y ya puedes salir, ven a pistear, te hara feliz


 Am C G 
Juxi, el hombre calvo

 Am C G 
Juxi, borracho pelon


 Am F 
Tienes una boca que huele a puro pinche anis

 C G 
Pasas tus dias pensando en Bacardi

 Am F 
Con la botella tienes una fijación

 C G 
Pides a gritos una caguama


  Fmaj7 Dm7 
Y fue una larga noche en el torito

  Fmaj7 C 
Y fue una larga noche amigo mio

 Fmaj7 Dm7 Fmaj7 C 
Y ya puedes salir, ven a pistear, te hara feliz


 Am Fmaj7 Am Fmaj7 Fmaj7 Dm7 
Y fue una larga noche en el torito

  Fmaj7 C 
Y fue una larga noche amigo mio

 Fmaj7 Dm7 Fmaj7 C 
Y ya puedes salir, ven a pistear, te hara feliz


 Am C G 
Juxi, el hombre calvo

 Am C G 
Juxi, borracho pelon

El Angel De La Bicicleta chords – Attaque 77

 El E5 del intro se hace en el septimo traste de la quinta cuerda , las otras veces en la forma tradicional.

intro: E5-D5-C5-B5-A5  B5


 B5 F#5 
Cambiamos ojos por cielo
       A5 F#5 
sus palabras tan dulces, tan claras cambiamos por truenos
 B5 F#5 
Sacamos cuerpo, pusimos alas
          A5 F#5 
y ahora vemos una bicicleta alada que viaja
 C5 B5 
por las esquinas del barrio, por calles   
 C5 B5 
por las paredes de baños y cárceles        
  E5 B5 E5 
¡Bajen las armas que aquí solo hay pibes comiendo! 

  B5 F#5 
Cambiamos fe por lágrimas
          A5 F#5 
con qué libro se educó esta bestia con saña y sin alma
  B5 F#5 
Dejamos ir a un ángel
        A5 F#5 
y nos queda esta mierda que nos mata sin importarle
 C5 B5 
de dónde venimos, qué hacemos, qué pensamos  
 C5 B5 
si somos obreros, curas o médicos    
  E5 B5 E5 
¡Bajen las armas que aquí solo hay pibes comiendo! 
                                                   
 B5 F#5 
Cambiamos buenas por malas
       A5 F#5 
y al ángel de la bicicleta lo hicimos de lata
 B5 F#5 
Felicidad por llanto
        A5 F#5 
ni la vida ni la muerte se rinden con sus cunas y sus cruces
 C5 B5 
Voy a cubrir tu lucha más que con flores     
 C5 B5 
Voy a cuidar de tu bondad más que con plegarias  
  E5 B5 E5 
¡Bajen las armas que aquí solo hay pibes comiendo!  
                                                    
Termina en B5

Se Nos Muere El Amor chords – Ricardo Arjona

 F C/A 
Se nos muere el amor
 Dm Am 
Tiene fiebre de frio
 A# F 
Se nos calló de la cama
             A Dm 
cuando lo empujó el hastío


 A# F 
Está enfermo de muerte
 A Dm 
el mismo que era tan fuerte
 A# F 
tiene anemia de besos
        A Dm 
tiene cancer de olvido
                F 
y por si fuera poco
        A# F 
tiene ganas de morir


   F C/A 
Se nos muere el amor
 Dm Am 
Se nos mueren las ganas
      A# F 
las vemos agonizar
        A7 Dm 
convulsionando entre las sábanas
         A# F 
y no existe un vino tinto
     A7 Dm 
que nos reviva el instinto
         A# F A7 Dm 
se nos muere la magia la pasión la locura

    A# F   
Ay amor traicionero
     A7 Dm 
viniste pa´ jorobarnos
    A# F 
yo sobrevivia sin ella
 A# F  
y ella era feliz sin mi

CORO
    A# F A7 Dm 
Ay amor con el tiempo te nos has oxidado
   A# F A7 Dm 
ay amor susceptible ay amor delicado
     A# F 
ay amor no te mueras
     A7 Dm  
o muérete de un trancazo
    A# F 
que no hay peor agonía
             A# F  
que la que es de paso en paso

        F C/A 
Se nos muere el amor
     Dm Am 
se le acabó la ternura
    A# F A Dm 
y a la libertad, la convertimos en dictadura
     A# F 
se contagió de costumbre
     A Dm 
le faltó fuego a la lumbre
         A# F A Dm 
se nos mueren los sueños los versos, los besos
      A# F A Dm 
ay amor implacable yo ya no se que prefiero
      A# F A# F 
que me odie de corazón o que me ame sin amor

CORO
    A# F A7 Dm 
Ay amor con el tiempo te nos has oxidado
   A# F A7 Dm 
ay amor susceptible ay amor delicado
     A# F 
ay amor no te mueras
     A7 Dm  
o muérete de un trancazo
    A# F 
que no hay peor agonía
             A# F  
que la que es de paso en paso

     A# F 
Si todo era tan bello 
      A7 Dm 
dime amor que nos pasa
    A# F 
hoy ya no somos ni amigos 
     A7 Dm 
no cabemos en casa

     A# F 
ay amor tan ingrato
    A7 Dm 
quítame solo una duda
    A# F 
si eres tu el que se muere
     A# F 
o soy yo el que te mato.      

El Nido – The Nest – Demo Tabs by Dairybeat

 DAIRYBEAT: EL NIDO (The Nest) (c. André H. Hofman - 2004 - DEMO) 4/4 – 100

|./.   |: Repeat the previous Chord and Measure of 4-counts.


Intro: 

  A    |A       |./.     |./.     |
e|------9--9-7-5------------------|
b|--------------------------------|
g|---------------6--6-4-2---------|
d|-------------------------------2|
a|------------------------4--4-2--|
e|--------------------------------|

Verse 1:

 |A    |E       |A     |./.   |./.   |E       |A      |A7    |
e|-----------------------------------------------------------|
b|-----------2-----------------------------2-----------2-----|
g|2-----1--4---4-2--------------2---2-1--4---4-2—--2-4------2|
d|------------------2-4-2---2-2------------------------------|
a|-----------------------------------------------------------|
e|-----------------------------------------------------------|

 |D    |./.     |A     |./.   |./.   |E       |A     |E      |
e|-----------2-0---------------------------------------------|
b|3--------3-----3-2-----------------------2----------------5|
g|--------------------4-2------2------1--4---4-2-------------|
d|--------------------------2---------------------2-4-2------|
a|-----------------------------------------------------------|
e|-----------------------------------------------------------|

Verse 2:

 |A    |E       |A      |./.   |./.   |E       |A       |A7     |
e|5-----4--7-9-7----------------5----5-4--7-9-7--------7-9------|
b|---------------10--5-7-5----5-----------------10--10--------10|
g|--------------------------------------------------------------|
d|--------------------------------------------------------------|
a|--------------------------------------------------------------|
e|--------------------------------------------------------------|

 |D     |./.      |A      |./.   |./.   |E       |A        |A7    |
e|10--10-14-12-10--9----7--5------5------4--7-9-7---------7-9-----|
b|------------------------------5-----------------10---10---------|
g|----------------------------------------------------------------|
d|----------------------------------------------------------------|
a|----------------------------------------------------------------|
e|----------------------------------------------------------------|

Chorus:

 |D            |./.          |A          |./.        |E        |
e|10--10--7-----10--10--7-----9--9--7-----9--9--7-----7--7-----|
b|----------10------------10----------10----------10-------10-9|
g|-------------------------------------------------------------|
d|-------------------------------------------------------------|
a|-------------------------------------------------------------|
e|-------------------------------------------------------------|
 |./.       |A              |A7    |D            |./.         |
e|7--7---------------------7-9------10--14-12-10--10--14-12-10|
b|-----10-9--10--9-10-9-10------------------------------------|
g|------------------------------------------------------------|
d|------------------------------------------------------------|
a|------------------------------------------------------------|
e|------------------------------------------------------------|

 |A          |./.        |E         |./.       |A      |E   E7|
e|9--12-10-9--9--12-10-9--7--10-9-7--7--10-9-7--5-------------|
b|--------------------------------------------------5-7-5-----|
g|------------------------------------------------------------|
d|------------------------------------------------------------|
a|------------------------------------------------------------|
e|-----------------------------------------------------------0|

Verse 3:

 |A    |E       |A      |./.    |./.   |E       |A     |A7     |
e|-------------------------------------------------------------|
b|-------------------------------------------------------------|
g|-------------------------------------------------------------|
d|-------------------------------------------------------------|
a|0--------2-4-2-0----------------0--------2-

A Kereszt Mondta El – The Cross Has Said It All chords – Matt Redman

 [Intro 4x]
 G C G D 

[Vers 1]
    G Am Hm C 
A kereszt mondta el, a kereszt mondta el
    G Am Hm C 
Tagadni többé nem lehet, mert megmutatta hogy szeret
    D C Hm C 
A keresztből megérthető, az Úr Jézus a megmentő
  D C Hm Am 
Vele üzente a hű Atya, "Jöjj gyermekem, jöjj haza!"

[Kórus]
  G C G D 
Kegyelmed Jézus felénk olyan nagy
   G C G D 
Amilyen távol a földtől a nap
     G C G D 
S ahogy nyugattól messze napkelet
    G C G D    
A bűne-ink olyan messze veted

[Vers 2]
    G Am Hm C 
A kereszt mondta el, a kereszt mondta el
    G Am Hm C 
Én akkor ismertelek meg, mikor megláttam a kereszted
      D C Hm C 
Ahol értünk folyt a drága vér, váltság minden bűnünkért
  D C Hm Am 
Porból vagyunk és por leszünk, de Te mégis meghaltál értünk

[Kórus]

[Átvezetés]
 C Em 
 Oly hű, oly jó, vagy Te, Oly hű, oly jó, vagy Te
 C D 
 Oly hű, oly jó, vagy Te, Oly jó

[Kórus]

Hola Buenos Dias chords – El Canijo De Jerez

 G 
Algo oscuro crecía en mí
 C D G 
Y fui a hacerme una lobotomía
 G 
Ni los consejos del doctor
 C D G 
Ni un estudio de antropología

          Bm7 Em 
Supieron qué tenía, hasta que me dijeron
          Bm7 Em 
Lo que me pasaba, es que echaba de menos
 Am D 
Reírme al amanecer

 G 
Estaba muy triste y no sé por qué
 C D G 
Con lo bonita que es la primavera
 G 
Dejé las penas en el andén
 C D G 
Y ahora voy flotando por las aceras

          Bm7 Em 
Prefiero ser un indio con alma de payaso
        Bm7 Em 
No tengo dinero pero regalo abrazos
 Am D 
A todo el que hablo con él

[Chorus]
 D G C D 
Hola, buenos días , hoy me siento bien
              G C D 
Yo me vengo arriba y me subo por la pared
           G C D 
Llega la mañana y no me puedo parar
          G C D 
Vivo peleando en el ojo del huracán


 G 
El grillo que llevo en mi interior
 C D G 
Siempre canta cuando estoy contento
 G 
Me dicen el niño vudú
 C D G 
Porque mi magia te agarra por los huesos

          Bm7 Em 
Yo vengo de una tierra donde la risa es oro
        Bm7 Em 
Voy contando historias con los pies en remojo
 Am D 
Y el codo en la barra del bar

[Chorus]
 D G C D 
Hola, buenos días , hoy me siento bien
              G C D 
Yo me vengo arriba y me subo por la pared
           G C D 
Llega la mañana y no me puedo parar
          G C D 
Vivo peleando en el ojo del huracán

              C G 
Quiero atravesar la cortina gris
            D Bm7 Am 
Quiero agarrarme a la vida como una grapa
             C G 
Quiero despegar como un misil
           D Bm7 Am 
Quiero lograr que te levantes de la butaca
                     D 
Brindando al amanecer

[Chorus]
 D G C D 
Hola, buenos días , hoy me siento bien
              G C D 
Yo me vengo arriba y me subo por la pared
           G C D 
Llega la mañana y no me puedo parar
          G C D 
Vivo peleando en el ojo del huracán

              G C D 
(Hola buenos días) El Lorenzo vuelve a brillar
              G C D 
(Hola buenos días) Porque nada me puede parar
              G C D 
(Hola buenos días) Yo disparo este cañón
              G C D 
(Hola buenos días) Pa curarte el corazón
              G C D 
(Hola buenos días) Yo te canto esta canción compare
              G C D 
(Hola buenos días) Por la mañana yo me escapo por las aceras
              G C D 
(Hola buenos días) Hola buenos días, hola buenos días, hola buenos días

Hermanos En El Dolor Tabs – Delirium

 Intro

E|-0-~-----------------------------------------------------------------|
B|-0-~---------0---------------3---------------3---------------0-------|
G|-0-~-------0---0-----------0---0-----------2---2-----------0---0-----|
D|-4-~-----4-------4-------0-------0-------0-------0-------4-------4---|
A|-2-~---2-----------2---2-----------2---0-----------0---2-----------2-|
E|-0-~-0---------------3---------------2---------------0---------------|

                                                                   x3
E|-----------------------------------------------------------------|
B|-------------------------3---------------3---------------0-------|
G|-------0---------------0---0-----------2---2-----------0---0-----|
D|-----4---------------0-------0-------0-------0-------4-------4---|
A|---2-------0---0---2-----------2---0-----------0---2-----------2-|
E|-0-------0---2---3---------------2---------------0---------------|


Estribillo


E|-------------------|
B|-------------------|
G|-------0-----------|
D|-----4-----0---0---|
A|---2-----0---2-----|
E|-0-----------------|

                                                                         x4
E|---------0---------------0---------------0-----------------------------|
B|-------1---1-----------3---3-----------1---1-----------1---------------|
G|-----0-------0-------0-------0-------2-------2-------2-----------------|
D|---2-----------2---0-----------0---2-----------2---2-------0--0--------|
A|-3---------------2---------------0---------------0-------0--2----------|
E|-----------------------------------------------------------------------|

Wait Wait Wait Tabs by Hanni El Khatib

 Credit goes to ely_koptaire for the majority of the Tabs - 
they figured out the chord progression. I have simply added
the picking pattern I use when I play this song. It seems to
be the same all the way through, except a little break where
he strums the last C chord and pauses before continuing with
the picking pattern - listen to the song and you will get
what I mean. 

PICKING PATTERN:


 C        C        Am       Am       
E[-------0|-------0|-------0|-------0|
B[--1-----|--1-----|--1-----|--1-----|
G[-----0--|-----0--|-----2--|-----2--| 
D[--2---2-|--2---2-|--2---2-|--2---2-|
A[3---3---|3---3---|0---0---|0---0---|
E[--------|--------|--------|--------|
  F        F        C        C
E[-------1|-------1|-------0|-------0|
B[--1-----|--1-----|--1-----|--1-----|
G[-----2--|-----1--|-----0--|-----0--| 
D[--3---3-|--3---3-|--2---2-|--2---2-|
A[3---3---|3---3---|3---3---|3---3---|
E[--------|--------|--------|--------|

CHORD PROGRESSION (courtesty of ely_koptaire)

        C                           Am
V1      I don't know where you came from
        F                            C
        but I do know that I'm not alone
        C                          Am
        be sure that I love you darling
        F                              C
        even though sometimes we won't get along

        there's not a day that passes by, my dear

        that I don't think of the first night we spoke

        and those words are staying upon your skin

        along with that precious smile of hope

                C                            Am
CH              that's why I'm like wait, wait, wait
                F                            C
                don't you know I could be your home?
                C                 Am
                I'm like wait, wait, wait
                F                      C
                cause nobody wants to be alone

V2      lying there on the kitchen floor                (same as V1)

        were the last signs of a helpless soul

        and she knew that he would die right then

        and so she held him until the last breath grew old

        and so she cried as her darling slept

        in between her arms, slid to the floor

        and then she screamed out into the cold, cold night

        oh my God, please don't go

CH              she was like, wait, wait, wait

                I love you more than you know

                she was like, wait, wait, wait

                I don't wanna be alone

                oh, oh, oh, oh, oh, oh (ahem)

                that's why I'm like, wait, wait, wait

Ye3ady El Seef solo Tabs by Cairokee

 -------------------------------------------------------------------------------
                             Ye3ady El Seef - Cairokee (Solo)
-------------------------------------------------------------------------------
: Omar

Tuning: Standard (eBGDAE)

http://www.youtube.com/watch?v=sWe5I5JWU2M (@ 2:29)

e|---------------------------------------------------------------------------|
B|10b12----10b12----12r10b12~~~---/15--14~~~~~~~~~~~~~~~~~~~~~~--------------|
G|---------------------------------------------------------------------------|
D|---------------------------------------------------------------------------|
A|---------------------------------------------------------------------------|
E|---------------------------------------------------------------------------|

e|-----------------------------10b12--12b14--10-12-14-17b19-17--------12--14-|
B|8-10--10b12~~--12r10b12~~--------------------------------------------------|
G|---------------------------------------------------------------------------|
D|---------------------------------------------------------------------------|
A|---------------------------------------------------------------------------|
E|---------------------------------------------------------------------------|

e|12--------------------------------17---------------------------------------|
B|----15-14-12~~~~--12-14-15-17b19-----17b19--19r17--15-14~~--15-12--10------|
G|-------------------------------------------------------------------------12|
D|---------------------------------------------------------------------------|
A|---------------------------------------------------------------------------|
E|---------------------------------------------------------------------------|

e|----------------------------------------------------------------17---------|
B|10--12-12--14-14--15-15--17-14-15-17--17-14-15-17---17b19-17b19----17b19---|
G|---------------------------------------------------------------------------|
D|---------------------------------------------------------------------------|
A|---------------------------------------------------------------------------|
E|---------------------------------------------------------------------------|

e|-------------------------------------------17------------------------------|
B|17b19-17b19-17b19--19r17-15-17-17b19-17b19----17b19-17b19-17b19-17b19-19r17|
G|---------------------------------------------------------------------------|
D|---------------------------------------------------------------------------|
A|---------------------------------------------------------------------------|
E|---------------------------------------------------------------------------|

e|------------------17-------------------------------------------------------|
B|15-17-17b19-17b19----17b19-17b19-17b19-17b19-19r17-15-17-17b19--17--15~~~~~|
G|---------------------------------------------------------------------------|
D|---------------------------------------------------------------------------|
A|---------------------------------------------------------------------------|
E|---------------------------------------------------------------------------|

e|---------------------------------------------------------------------------|
B|\14--14~~~~~~~~~~~~~~~~~~~~~~----------------------------------------------|
G|---------------------------------------------------------------------------|
D|---------------------------------------------------------------------------|
A|---------------------------------------------------------------------------|
E|---------------------------------------------------------------------------|

************************************

| /   slide up
| \   slide down
| h   hammer-on
| p   pull-off
| ~   vibrato
| +   harmonic
| x   Mute note
| b   Bend
| pb  Pre-bend
| br  Bend release
| pbr Pre-bend release
| brb Bend release bend

************************************

The Shout Of El Shaddai chords – Paul Wilbur

 Am Dm Em G G/A Am 
    CAN YOU HEAR IT    THUNDER IN THE DIS--TANCE

          Dm G Em Am 
WHEN WE WOR--SHIP  THE LION OF JUDAH ROARS

               Dm G Em G Am  
STRONG-HOLDS CRUM-BLE  ALL AROUND US   

         Dm7 G Dm Esus -- E 
IN THE PRE--SENCE OF OUR LORD

 E Am Am F 
THERE'LL BE VICTORY IN THE CAMP  AT THE SHOUT OF EL SHADDAI

        Dm Esus E 
EVERY ENEMY WILL FLEE FROM THE FIRE IN HIS EYES

        Am Am F 
EVERY CAPTIVE WILL BE FREED IN THIS YEAR OF JUBILEE

 F Dm Esus - E --- Am 
WHEN WE HEAR THE SHOUT OF  EL  SHAD-DAI   to beginning   
(repeat last line at ending)

El Shaddai chords – Mason Clover

 El Shaddai by Mason Clover feat. Erica Lauren
 GraceGirl


Capo 2

C* x32013 (added G note on C chord) - this is quickly played after some of the C chords


INTRO:
Am (1 bar), Am7 (4 bars)
 Am7 ,  F ,  C ,  G Am7 ,  F ,  C C *,  G Am7 ,  F ,  C C *,  G Dm ,  G ,  Am Am F 
Let us go up into
     C G 
The enemies camp
        Am F 
Let us see if Yah will move
          C C *   G 
On our behalf
        Am F 
Let us choose to rely
         C G 
On the strength of our God
         Dm G Am 
On the strength of El Shaddai


CHORUS:
     Am F 
El Shaddai, El Shaddai
 C G 
God is our strength
        Am F C G 
And in Him the victory is won, Hallelujah
       Am F 
It is finished it is done
 C G 
Yeshua is the Lord
        Dm G Am 
And in Him we've overcome


           Am F 
There's a trembling in the camp
   C G 
A fear in the enemies heart
        Am F 
As the army of our Lord raises
      C C *   G 
It's sword
         Am F 
And the host of hell
      C G 
Will turn and flee before
     Dm G Am 
The name of Yeshua our Lord


CHORUS x1


            Am F 
Whether by many or by few
     C G 
The Lord shall rise
        Am F C C *   G 
Within those who are yielded to His call
           Am F 
They will multiply in strength
           C G 
As they magnify His name
         Dm G Am 
That He may be all in all


CHORUS x1


SOLO/BRIDGE (x2):

 Am ,  F ,  C ,  G   x3
 Dm ,  G ,  Am     x1


CHORUS x2

El Universal chords – Kapanga

 e|-----------------------------------||
b|-----------------------------------||
g|--6/7--7-7---6/7--7-7---6/7--7-7---||
b|--6/7--7-7---6/7--7-7---6/7--7-7---||
a|--4/5--5-5---4/5--5-5---4/5--5-5---||
E|-----------------------------------||

Teclado (Tabulado para guitarra):

    D A Em Bm A 
e|-2-0-----------2-0----------0------||
b|-----3-------------3------3--------||
g|-------2--4-2--------2--4----------||
d|-----------------------------------||
a|-----------------------------------||
E|-----------------------------------||

    D A Em Bm A 
e|-2-0-----------2-0-----------------||
b|-----3-------------3------3---2----||
g|-------2--4-2--------2--4----------||
d|-----------------------------------||
a|-----------------------------------||
E|-----------------------------------||

 D                   [ Dsus4  -  D ]
Ayer te vi, no podia creer
           A                    [ A6  -  A ]
lo que pasaba por dentro de mi.
      Em 
Te miraba y no te pude decir nada,
          Bm A 
yo no sabia lo que era estar asi.

       D                  [ Dsus4  -  D ]
Iluminando nuestro propio cielo
  A                    [ A6  -  A ]
vos apareciste en mi vida.
 Em 
Estaba todo tan mal
 Bm A 
pero volvio la alegria.

 G 
A traves del universo
 D A 
voy a gritar que te quiero.
 G 
A traves del universo
 D A 
voy a gritar que te quiero.

 D A 
Yo quiero estar con vos,
  Em Bm  -  A 
puedo sentir que vuelo.
 D A 
Yo quiero estar con vos,
 Em Bm  -  A 
puedo llegar al cielo.  [x2]

 D                   [ Dsus4  -  D ]
En la mañana cuando me despierto
 A               [ A6  -  A ]    [ A6  -  A ]
me gusta que tú estés a mi lado,

 Em 
las sábanas testigo de tu cuerpo desnudo
 Bm A 
recién después de habernos amado.

 G 
A traves del universo
 D A 
voy a gritar que te quiero.
 G 
A traves del universo
 D A 
voy a gritar que te quiero.

 D A 
Yo quiero estar con vos,
  Em Bm  -  A 
puedo sentir que vuelo.
 D A 
Yo quiero estar con vos,
 Em Bm  -  A 
puedo llegar al cielo. (x2)

Puente:
e|------------------------------------|--|
b|------------------------------------|--|
g|--7-7-7-x-4-4-4-x-------------------|--|
d|--7-7-7-x-4-4-4-x-5-5-5-x-77777777--|x2|
a|--5-5-5-x-2-2-2-x-5-5-5-x-77777777--|--|
E|------------------3-3-3-x-55555555--|--|

(Todo las quintas en PM)
 G5 
A traves del universo
 D5 A5 
voy a gritar que te quiero.
 G5 
A traves del universo
 D5 A5 
voy a gritar que te quiero.


 D A 
Yo quiero estar con vos,
  Em Bm  -  A 
puedo sentir que vuelo.
 D A 
Yo quiero estar con vos,
 Em Bm  -  A 
puedo llegar al cielo. (x2)

Fin:
e|-----------------------------------||
b|-----------------------------------||
g|--6/7--7-7---6/7--7-7---6/7--7-7---||
b|--6/7--7-7---6/7--7-7---6/7--7-7---||
a|--4/5--5-5---4/5

Bodies Of Christ chords – Mariachi El Bronx

 Bm F# 
Why should we separate
               B 
She said with a smile
               F# 
She then drew a figure eight
                 Bm 
In lipstick on the tile

 
             D A 
She Finished her dream,Blew smoke in the air
              F# Bm 
Said I'll never tell,And I'll never care



 Bm F# 
Her legs are like hostages
               Bm 
All tied up in twine
                       F# 
Oh how they would call for me
                Bm 
And beg for their life


                D A 
Our bodies don't speaK,They cry out like dogs
                         F# Bm 
They stretch towards the sky,And scratch at the walls
                D A 
Moments like these, are stronger than love
             F# Bm 
Ceilings and stars, look down from above



 Bm F# 
The dinner is over

                 Bm  
And the kitchen's a mess
                  F# 
The kids are like vampires
             Bm  
Without any rest

             D A 
She Finished her dream,Blew smoke in the air
              F# Bm 
Said I'll never tell,And I'll never care


                D A 
Our bodies don't speaK,They cry out like dogs
                         F# Bm 
They stretch towards the sky,And scratch at the walls
                     D A 
It's in Moments like these,That are stronger than love
             F# Bm 
Ceilings and stars, look down from above

Tres Y El Apocalipsis Tabs by Azrael

 Grupo:Azrael
Cancion:Tres y el Apocalipsis
 Dimension IV
Tab hecha por: JocheElmo



Tuning E Standard

EI----------I----------l---------------------------------|l
BI----------I----------l---------------------------------|l
GI----------I----------l-------------------------------l-|x2
DI-6------6-I-------9--l-6-x-x-x-6-x-x-6-6-x-x-6-x-x-x---|l
AI—4------4-I-------7--l-4-x-x-x-4-x-x-4-4-x-x-4-x-x-x---|l
EI----------I-------7--l---------------------------------|l

EI---------------------------------------------------------------|I
BI---------------------------------------------------------------|I
GI---------------------------------------------------------------|I
DI--9-x-x-x-9-x-x-9-9-x-x-9-x-x-x-6-x-x-x-6-x-x-6-6-x-x-6-x-x-x--|I
AI--7-x-x-x-7-x-x-7-7-x-x-7-x-x-x-4-x-x-x-4-x-x-4-4-x-x-4-x-x-x--|I
EI--7-x-x-x-7-x-x-7-7-x-x-7-x-x-x--------------------------------|I

EIl-----------------------------------|l
BIl-----------------------------------|l
GIl-----------------------------------|l
DIl-4s6-x-x-x-6-x-x-6-6-x-x-6-x-x-x-l-|x2
AIl-2s4-x-x-x-4-x-x-4-4-x-x-4-x-x-x---|l
EIl-----------------------------------|l

EI-----------------------5---------------------------------------|I
BI-------------------------5-------------------------------------|I
GI---------------------------7-----------------------------------|I
DI-7-x-x-x-7-x-x-7-7-x-x-------7--7-x-x-x-7-x-x-7-7-x-x-7-7-7-7--|I
AI-5-x-x-x—5-x-x-5-5-x-x----------5-x-x-x-5-x-x-5-5-x-x-5-5-5-5--|I
EI---------------------------------------------------------------|I


EI---------------------------------------------|I
BI---------------------------------------------|I
GI---------------------------------------------|I
Dl---------------------------------------------|I
AI-444----------------------------2h3h2h3h2h3--|I
EI-----222-555-333-44-55-3h4h3h4---------------|I

EI--------------------------------------I-----------------------|
BI--------------------------------------I-----------------------|
GI--------------------------------------I-----------------------|
DI-6-6-6---4s6-7-7-7-7-7-7-7-7-7-6-4-2--I-6-6-6---4s6-7-7-7-7-7-|
AI-4-4-4-0-2s4-5-5-5-5-5-5-5-5-5-4-2-0--I-4-4-4-0-2s4-5-5-5-5-5-|
EI--------------------------------------I-----------------------|

E-----------I--------------------------------------|I
B-----------I--------------------------------------|I
G-----------I--------------------------------------|I
D-7-7s9s7s9-I-6-6-6---4s6-7-7-7-7-7-7-7-7-7-6-4-x--|I
A-5-5s7s5s7-I-4-4-4-0-2s4-5-5-5-5-5-5-5-5-5-4-2-x--|I
E-----------I--------------------------------------|I


EI--------------------------|I
BI--------------------------|I
GI--------------------------|I
DI--------------------6-5---|I
AI---4------3---4-6-7-------|I
EI-5---5--4---4-------------|I

Quiero Ser Tu Sombra Tabs by El Rejunte

 1|--0-1-0-------8-0-8-0-8-0-8-10-7-6-7--|
2|--------4-5--------------------6------|
3|-------------------------------7------|
4|--------------------------------------|
5|-0--------0-----7--7-7---7------------|
6|--------------------------------------|

1|--0-1-0-------7-0-7-0-7-0-7-8-5-4-5-------|
2|--------4-5-------------------------------|
3|------------------------------------------|
4|------------------------------------------|
5|-0-------0--------------------------------|
6|---------------7----7----7--7-------------|

1|--0-1-0-----5-5-5-5-3-3-3-5-3-1-0-1-------|
2|--------4-5-------------------------------|
3|------------------------------------------|
4|------------------------------------------|
5|-0-------0--------------------------------|
6|------------------------------------------|

1|--1-0-------------------0-1-0-----------0-5---------|
2|-----3-1-0-------0-1-3--------3-1-0---1-------------|
3|-----------2-1-2--------------------2---------------|
4|----------------------------------------------------|
5|---0--------0------------0----------0------0--------|
6|------0-----------0-----------0---------------------|

1|--12--12-10-0--12-10-0--12-10-0--12-10-0--|
2|------------------------------------------|
3|------------------------------------------|
4|------------------------------------------|
5|------------------------------------------|
6|------------------------------------------|

1|--10-8-0--10-8-0--10-8-0--10-8-0----------|
2|------------------------------------------|
3|------------------------------------------|
4|------------------------------------------|
5|------------------------------------------|
6|------------------------------------------|

1|--8-7-0--8-7-0--8-7-0--8-7-0--------------|
2|------------------------------------------|
3|------------------------------------------|
4|------------------------------------------|
5|------------------------------------------|
6|------------------------------------------|

1|--7-5-0--7-5-0--7-5-0--7-5-0--------------|
2|------------------------------------------|
3|------------------------------------------|
4|------------------------------------------|
5|------------------------------------------|
6|------------------------------------------|

1|--5-3-0--5-3-0--5-3-0--5-3-0----3-1-0-1---|
2|------------------------------------------|
3|------------------------------------------|
4|------------------------------------------|
5|------------------------------------------|
6|------------------------------------------|

1|--1-0-------------------0-1-0-----------0-5--|
2|-----3-1-0-------0-1-3-------3-1-0---1-------|
3|-----------2-1-2-------------------2---------|
4|---------------------------------------------|
5|---------------------------------------------|
6|---------------------------------------------|


1|----------------------------------------|
2|--------------1----1--1--1---3-1-0---0--|
3|-----------------------------------2----|
4|--2-3-2-1-2------2--2--2----------------|
5|--------------0-------------------------|
6|----------------------------------------|

1|----------------------------------------|
2|--------------0----0--0--0---1-0--------|
3|---------------------------------3-2-3--|
4|--2-3-2-1-2------2--2--2----------------|
5|----------------------------------------|
6|----------------------------------------|

1|----------------------------------------|
2|----------------------------------------|
3|--------------2-1-2-1-0-0-0-2-0---------|
4|--2-3-2-1-2---------------------3-2-3---|
5|----------------------------------------|
6|----------------------------------------|

1|--1-0-------------------0-1-0-----------0-5--|
2|-----3-1-0-------0-1-3-------3-1-0---1-------|
3|-----------2-1-2-------------------2---------|
4|---------------------------------------------|
5|---------------------------------------------|
6|----------------------------

El Toro Malaguena Tabs by Gustavo Canabarro

 Intro

e-0---1-3-1-0h1p0----------0-----0--------------------------------------|
B-------------------------0-------0-------------------------------------|
G------------------------1---------1------------------------------------|
D-----------------------2-----------2-----------------------------------|
A----------------------2-------------2----------------------------------|
E---------------------0---------------0---------------------------------|


e---------------------------0-------------------------------------------|
B-0---3---1-0h1p0---------1----------------0-1---0-3-1-0----------------|
G-----------------------2----------2---1-2---2-----------2--------------|
D---------------------3----------------------3--------------------------|
A-------------------0------------------------0--------------------------|
E-----------------------------------------------------------------------|


e----------------0------------------------------------------------------|
B-------------0--0------------------------------------------------------|
G----------1------------------------------------------------------------|
D-------2---------------------------------------------------------------|
A----2------------------------------------------------------------------|
E-0---------------------------------------------------------------------|



e-0---1-3-1-0h1p0----------0--------------------------------------------|
B-------------------------0-0-------------------------------------------|
G------------------------1---1------------------------------------------|
D-----------------------2-----2-----------------------------------------|
A----------------------2-------2----------------------------------------|
E---------------------0---------0---------------------------------------|


e------------------------1-----------------------------------------------|
B-0---3---1-0h1p0-------1-1--------------------0-1---0---3-----1---3-/-4-|
G----------------------2---2-----------2---1-2---2-----------------------|
D---------------------3-----3--------------------3-----------------------|
A--------------------3-------3-------------------3-----------------------|
E-------------------1---------1------------------1-----------------------|


e-----------------------------------------------------------------------|
B----4~-----------------------------------------------------------------|
G-----------------------------------------------------------------------|
D-----------------------------------------------------------------------|
A-----------------------------------------------------------------------|
E-----------------------------------------------------------------------|



Part 1

e----0-----0-----0-----0-----0-----0-----0-----0-----0-----0-----0-----0-|
B----0-----0-----0-----0-----0-----0-----1-----1-----1-----1-----0-----0-|
G----1-----1-----1-----1-----1-----1-----2-----2-----2-----2-----2-----2-|
D------------------------------------------------------------------------|
A-------------2-----------------2-----0-----3-----2-----0----------------|
E-0-----4-----------0-----4-----------------------------------3-----1----|


e----0-----0-----0-----0-----0-----0-----0-----0-----0-----0-----0-----0-|
B----0-----0-----0-----0-----0-----0-----0-----0-----0-----0-----0-----0-|
G----1-----1-----1-----1-----1-----1-----2-----2-----2-----2-----2-----2-|
D------------------------------------------------------------------------|
A-------------2-----------------2-----0-----3-----2-----0----------------|
E-0-----4-----------0-----4-----------------------------------3-----1----|


e----0-----0-----0-----0-----0-----0-----0-----0-----0-----0-----0-----0-|
B----0-----0-----0-----0-----0-----0-----0-----0-----0-----0-----0-----0-|
G----1-----1-----1-----1-----1-----1-----2-----2-----2-----2-----2-----2-|
D------------------------------------------------------------------------|
A-------------2

Por El Boulevard De Los Sueos Rotos chords – Joaquin Sabina

 ||  G          |   D          |   C             |
En el bulevar de los sueños rotos
           |  C           |   G             |
Vive una dama de poncho rojo 
        |  D        |   C          |
Pelo de plata y carne morena
      |   C          |     G         |
Mestiza ardiente de lengua libre
   |    Bm          |     Am         |
Gata valiente de piel de tigre
      |   D      |    G          |   G         ||
Con voz de rayo de luna llena

Por el bulevar de los sueños rotos
Pasan de largo los terremotos
Y hay un tequila por cada duda
Cuando Agustín se sienta al piano
Diego Rivera lápiz en mano
Dibuja a Frida Kahlo desnuda.

[Estribillo]
||  Dm         |    C           |
Se escapo de una cárcel de amor
     |    G           |     D         |    D           |
De un delirio de alcohol, de mil noches en vela
|    C          |   G           |
Se dejó el corazón en Madrid
    |   D        |   D      |    G      |    G          ||
Quien supiera reír como llora Chavela

Por el bulevar de los sueños rotos
Desconsolados van los devotos
De San Antonio pidiendo besos
Ponme la mano aquí macolina
Rezan los fieles por las cantinas
Paloma blanca de los excesos

Por el bulevar de los sueños rotos
Moja una lágrima antiguas fotos
Y una canción se burla del miedo
Las amarguras no son amargas
Cuando las canta Chavela Vargas
Y las escribe un tal José Alfredo

[Estribillo]
Se escapo de una cárcel de amor
De un delirio de alcohol, de mil noches en vela
Se dejó el corazón en Madrid
Quien supiera reír como llora Chavela

||   G        |   D       |    C      |
Las amarguras no son amargas
       |  C           |   G       |
Cuando las canta Chavela Vargas
     |  D       |    D       |   G         ||
Y las escribe un tal José Alfredo

[Estribillo]
Se escapo de una cárcel de amor
De un delirio de alcohol, de mil noches en vela
Se dejó el corazón en Madrid
Quien supiera reír como llora Chavela

www.clasesdeguitarrabarcelona.com

La polla records – Gol en el campo Chords

 + Tabulados de made in spain!                   ++ [http://mades.kaos.es]                        ++++++++++++++++++++++++++++++++++++++++++++++++++
       Aquí os escribo lo que sé de está canción. A ver si 
       se llena algo más la página de tabulados de la polla,
      que parece que está en racha.

 Intro y estribillo:

    Do# Fa# Sol# 
 Goool en el cam-po

    Do# Fa# Sol# 
 paaaz en la tie-rra
 
Final intro:  re# re# Re Do# Sol# re# re# Re Do# Sol# re# Re Do# Sol# re# Do# re# Do#  Do#  re# 


 Las estrofas son:  re# Do# Sol# re#  

  <a href="tabs/p/polla_records/gol_en_el_campo"   <br> Colaborador original: Javi Solera
[solera@abonados.cplus.es]

La polla records – Gol en el campo

La polla records

Gol en el campo

Primero empieza la guitarra sola y kantan el estribillo y después:

Intro:

G-------------------------------------------------------
D-------------------------------------------------------
A-6666666-6-5-4-3—6666666-6-5-4-3--6-5-4-3--6-4-64-64---
E-------------------------------------------------------

Verso: 

G--------------------------
D-------------------------- x8
A-6666-6-6-6—4444----------
E-----------------4-4-4----

Estribillo: (Gol en el campo...)

G--------------------------
D-------------------------- x4
A-44444444-----------------
E----------2222-4444-------

Verso x4

Estribillo x4

Puente:

G---------------------------
D---------------------------
A—6666666-6-5-4-3---0-1-2-4-
E---------------------------

Verso x4 durante solo de guitarra

Estribillo x4

Verso x6 

Estribillo x4

Parte final:
 
G---------------------------------
D---------------------------------
A-6-5-4-3--6-5-4-3--6-4-6-4-44-6--
E---------------------------------

  <a href="tabs/p/polla_records/gol_en_el_campo"   <br> Colaborador original: Ángel Gómez Pascual
[bichoraro84]