Tag: elephant

Trouble Tabs – Cage The Elephant Vsion 1

 -------------------------------------------------------------------------------
                             Trouble - cage the elephant
-------------------------------------------------------------------------------
:


Tuning:

e|---------------------------------------8-----------------8-----10--12------|
B|-----5--------9--------10----------------8-------12--------8---10--12------|
G|---0---0----9--9-9---9----9-75757575-9-----9---9---9-9-9-----9-10--12------|
D|-2--------6-----6--7-------------------------9------9----------------------|
A|---------------------------------------------------------------------------|
E|---------------------------------------------------------------------------|
"ooooo, ooo"
e|---8-----------------8--------8--------8-----------------8--------8--------|
B|-----8-------12--------8--------8--------8-------12--------8--------8------|
G|-9-----9---9---9-9-9-----9-10-----10-9-----9---9---9-9-9-----9-10-----10---|
D|---------9------9----------------------------9------9----------------------|
A|---------------------------------------------------------------------------|
E|---------------------------------------------------------------------------|

e|----13-------------12----------12-------------12----------12---------------|
B|-------13-------12---12--12-------13----13-------13----------13------------|
G|-12-------12-13--------13---14-------14----14-------14-12-------12---------|
D|---------------------------------------------------------------------------|
A|---------------------------------------------------------------------------|
E|---------------------------------------------------------------------------|

e|-------12----------12---------------------------------------------------------|
B|----12---12--12----------13----13----13-13~-----------------------------------|
G|-13--------13---14----14----14----14------------------------------------------|
D|------------------------------------------------------------------------------|
A|------------------------------------------------------------------------------|
E|------------------------------------------------------------------------------|
(Palm mute) "we were at the table, by the window in the view.. "
e|---------------------------------------------------------------------------|
B|---------------------------------------------------------------------------|
G|---------------------------------------------------------------------------|
D|--5555--9999------------------5555--9999-----------------------------------|
A|--3333--7777--7777--3333------3333--7777--77773----------------------------|
E|--------------5555--1111-(x2)-------------55551----------------------------|
"got so much to loose, got so much to prove"
e|-----------------------------------------------------------------------------|
B|-----------------------------------------------------------------------------|
G|-----------------------------------------------------------------------------|
D|-----------------------------------------------------------------------------|
A|-0-0----------------0-0------------------------------------------------------|
E|----4321-1234-(x2)-----4321--------------------------------------------------|
                    "trouble on my left, trouble on my right"
e|---8---------7-------------------------------------------------------------|
B|-----8-----9---9-|8---8---9---9---10---10---13---10-------|----------------|
G|-9-----9-9-------|--9---9---9---9----9----9----9----9-(x2)|----------------|
D|---------------------------------------------------------------------------|
A|---------------------------------------------------------------------------|
E|---------------------------------------------------------------------------|

e|----12-------------12----------12------------------------------------------|
B|-------13-------12---12--12-------13----13----13----13----13---------------|
G|-12-------12-13--------13---14-------14----14----1

Trouble chords – Cage The Elephant V5

 C E Am F 

Verse
 C E Am F 
 We were at the table, by the window, the view
 C E Am F 
 Casting shadows, the sun was pushing through
 C E Am F 
 Spoke a lot of words, I don't know if I spoke the truth

Pre Chorus
 Am   (walkdown)  F  (walkup)
Got so much to lose
 Am   (walkdown)  F  (walkup)
Got so much to prove
 Am   (walkdown)    F C E 
God don't let me lose my mind

Chorus
 C E Am 
 Trouble on my left, trouble on my right,
                  F C 
I've been facing trouble almost all my life
          E Am 
My sweet love won't you pull me through
              F C 
Everywhere I look I catch a glimpse of you
               E Am F //
I said it was love and I did it for life, do do do do

Bridge
 C E Am F 
Whoo oo...

Verse
 C E Am F 
 Will it come to pass or will I pass the test
 C E Am F 
 You know what they say: the wicked get no rest
 C E Am F 
 You can have my heart any place, any time

Pre Chorus
Chorus

Instrumental
 E  /  Am  /  F  /  Am G/B 

Chorus

Bridge
 C E Am F 
Whoo oo...

Tag
 Am F 
Got so much to lose
 Am F 
Got so much to prove
 Am F C E Am F Fm C 
God don't let me lose my mind

Walkdown on low E string: 
5-4-3-2-1

Walkup on low E string:
1-2-3-4-5

Elephant Tabs – Tame Impala V5

 -------------------------------------------------------------------------------
                             Elephant - Tame Impala
-------------------------------------------------------------------------------
:Der_aggster
alexanderholstner@hotmail.com

Just wanted to bring you the way Tame Impala actually plays it.
I have not seen any tabs for this song that are accurate regarding tuning or solos.

Tuning: DGCFAD  ( tune the two upper strings down 1 whole tonestep )

I've marked the accents with the beat number under it the first few bars
because I thought it was a bit confusing at first.

Intro

D|----------------------------------------------------------------------------------|
A|----------------------------------------------------------------------------------|
F|--------------------------------------12-12---------------------------------------|
C|--------------------------------------12-12---------------------------------------|
G|--7--7-7--7-7--7-7--7-7--7-7--7-7--7-710-10---------------------------------------|
D|--0--0-0--0-0--0-0--0-0--0-0--0-0--0-0--------------------------------------------|
    1    2    3    4    1    2    3    4   1

Verse

D|---------------------------------------------------------------------------|
A|---------------------------------------------------------------------------|
F|-----------------------------------------------------------12-12-----------|
C|-----------------------------------------------------------12-12-----------|
G|--7-7-7-7-7-7-7-7-7-7-7-7-7-7-7-7-7-7-7-7-7-7-7-7-7-7-7-7-710-10-----------|
D|--0-0-0-0-0-0-0-0-0-0-0-0-0-0-0-0-0-0-0-0-0-0-0-0-0-0-0-0-0----------------|
    2   3   4   1   2   3   4   1   2   3   4   1   2   3   4   1
D|---------------------------------------------------------------------------|
A|---------------------------------------------------------------------------|
F|---------------------------------------------------------------------------|
C|--7-7-7-7-7-7-7-7-7-7-7-7-7-7----------------------------------------------|
G|--7-7-7-7-7-7-7-7-7-7-7-7-7-7-7-7-7-7-7-7-7-7-7-7-7-7-7-7-7-7--------------|
D|--5-5-5-5-5-5-5-5-5-5-5-5-5-5-0-0-0-0-0-0-0-0-0-0-0-0-0-0-0-0--------------|
    2   3   4   1   2   3   4   1   2   3   4   1   2   3   4
D|-----------------------------------------------------|
A|-----------------------------------------------------|
F|---------------8--9--8--7--8--7--6----------12-12----|
C|---Kevin plays-9--10-9--8--9--8--7----------12-12----| First and second repeat.
G|--------------------------------------------10-10----|
D|-Dominic plays-7--8--7--6--7--6--5-------------------|

Repeat three times from the second beat in Intro.



D|-----------------------------|
A|-----------------------------|
F|-----------------------------|
C|-----------------------------| Third repeat.
G|-----------------------------|
D|-10-9--8--7--5--3--2--1--0---|

Solos / Interlude

D|-------------------------------------------------------------------|
A|-------------------------------------------------------------------|
F|----6h7h9-11----6h7h9-11-----12-----6h7h9-12-----6h7h9-12------14--|
C|-------------------------------------------------------------------|
G|-------------------------------------------------------------------|
D|-0-----------0------------0------0------------0------------0-------|

D|--------------------------------------------------------------|
A|--------------------------------------------------------------|
F|--------------------------------------------------------------|
C|---12p11-----------12p10-------------------------12h14p12-10--|
G|0--------12-14--0---------12-14--0--11h12h14-12---------------|
D|--------------------------------------------------------------|

D|---------------------------------------------------|
A|---------------------------------------------------|
F|----------------------12p11-----------12p11--------|
C|-4--5--7--------------------12-14-----------12-14--|
G|-----------------0-------

Tiny Little Robots chords – Cage The Elephant

 Hello, guys. I put this tab with chords and the lyrics to make it easier to play 
as a hole. Notice that sometimes the G5 must be on the 3rd fret and other times, 
on the 10th. enjoy!


Intro:

(  E5 G5 D5 A5  )


 E5 G5 D5 A5 
They've got you movin' to the city
 E5 G5 D5 A5 
Oh my, you think you're lookin' pretty
 E5 G5 D5 A5 
But they've got their pistols too
 E5 G5 D5 A5 
Tucked down beneath their shoe

 E5 D5 
It's a new sensation
 E5 D5 
World annihilation
 E5 D5 
Moving to the music
 E5 D5 
Patiently it's waitin'
 A5 G5       
The city's screamin'
 A5 G5 
I can hear them breathin'
 A5 G5 
Cryin' out for wisdom
 A5 G5 
Hungry minds are feedin'

 E5 D5 E5 D5 
I know that you're tired of this
           E5 D5 
Cause you're a robot
        E5 D5 
They designed your life
 A5 G5 A5 G5           
But true souls said you know what's right
         A5 G5 A5 G5 
And you can join us on the other side

 C5 D5 C5 D5 
Are you scared? 
         C5 D5 
Are you scared? 
         C5 D5 
Are you scared? 

 E5 G5 D5 A5 
They've got you marching to a drum beat
 E5 G5 D5 A5 
Oh my you got another nose bleed
 E5 G5 D5 A5 
They'll keep you so amused
 E5 G5 D5 A5 
You'll never taste the truth

 E5 D5 
It's a new creation
 E5 D5 
Total domination
 E5 D5 
Chains across your shoulders
 E5 D5 
Social captivation
 A5 G5 
Kill our leaders
 A5 G5 
Persecute our teachers
 A5 G5 
Criticize our culture
 A5 G5 
Crucify free thinkers

 E5 D5 E5 D5 
I know that you're tired of this
           E5 D5 
Cause you're a robot
        E5 D5 
They designed your life
 A5 G5 A5 G5           
But true souls said you know what's right
         A5 G5 A5 G5 
And you can join us on the other side

 C5 D5 C5 D5 
Are you scared? 
         C5 D5 
Are you scared? 
         C5 D5 
Are you scared? 


(  E5 G5 D5 A5  )4x
   E5 G5 F#5 E5 D5 
Fill our eyes with money
 E5 D5 
Vanity that's cunnin'
 A5 G5 
Only on the surface
 A5 G5 
Diamonds look so stunnin'
 E5 D5 
Mass deception
 E5 D5 
Altered our perception
 A5 G5 
Sold it to the children
 A5 G5 
Made a new connection

 E5</span

Back Stabbin Betty chords – Cage The Elephant

 Back Stabbin Betty

Cage The Elephant

I'm sure this isn't the real rythum guitar chords but I got them from this piano 
cover and it sounds pretty good if you use bar chords




 A G 
A poor guy that man John Thomas
 C D      
His woman truly was a devil
 A G 
She wasn't all that honest
 C D 
She tore him down on every level

 A G 
You're a no, good, lazy motherfucker
        C D 
Got a, shit job you worthless motherfucker
           A G 
You're a, a dead beat, feel sorry for your mother
     C D 
If I had time, I'd trade you for another

          E 
He don't like that
              D 
He wants his life back
                     A G C D 
He wants to go back home


 A G 
He tried so hard to please her
 C D 
He sold his soul to keep her happy
 A G 
But nothin' he did impressed her
 C D 
She always left him feelin' shitty

             A G 
This is it, no, this can't be all you bought me
         C D 
Said I'm, I'm high class, and this is what you brought me
       A G 
Gonna, strike low just like my momma taught me
         C D 
You're a low life, you're lucky that you got me

          E 
He don't like that
              D 
He wants his life back
                     A G C D 
He wants to go back home

 A G 
Down deep, way down inside him
 C D 
The will to leave was growing stronger
 A G 
And he bit his tongue for so long
 C D 
He couldn't hold back any longer

          A G 
You're a two, faced ruthless instigator
         C D 
You're a low down, triflin' masquerader
          A G 
You're a cold bitch, controlling conversator
        C D 
This is too much, I'm out I'll see ya later

           E 
She don't like that
                D 
But he got his life back
              E 
No she don't like that
          D 
But he's right back on track
                      A 
I said he went back, home

Grace Of A Woman chords – Elephant Revival

 I find palm mutting the verses and strumming the choruses gives the most accurate sound 
to the recording

 E 
Sometimes it seems as though
 F#m 
The very best of what a man can know
 A 
Is the grace of a woman

 E 
He can love his lonely heart
 F#m 
Only till earns again
 A 
for the grace of a woman

 C#m 
He can live in solitude
 F#m 
but only until that day is through come
 A 
the grace of a woman


 E 
Whoa oh oh oh oh
 F#m 
whoa oh oh oh oh
 A 
Whoa oh oh na na na na na na

 E 
Whoa oh oh oh oh
 F#m 
Whoa oh oh oh oh
 A 
Whoa oh oh la la na na na na

 E 
A woman can sacrifice
 F#m 
to bring about another's life
 A 
mmm the grace of a woman

 E 
She can have the healing touch
 F#m 
how a man can hold in so much
 A 
the grace of a woman


repeat chorus

 E 
From a mother yes you came
 F#m 
though its the father's carried name
 A 
you've come from the womb of a woman

 E 
so mother nature here we are
 F#m 
the greatest teacher of us all
 A 
the grace of a woman

 C#m 
from your soils flowers grow
 F#m 
like a bed of roses
 A 
oh the grace of a woman

Repeat Chorus (this time change progressions each repitition i.e. first time is the I ii 
IV, second time is the vi ii IV)

Aint No Rest For The Wicked Tabs by Cage The Elephant V7

 Tuning is open G (DGDGBD)

USE A GUITAR SLIDE.

AINT NO REST FOR THE WICKED- CAGE THE ELEPHANT

INTRO

D|--------------------------|----------------------------------------|
B|--------------------------|----------------------------------------|
G|-0--3--0--3/5--0-(x3-3--5)|-0--3--0--3/5--0-3/5-5-5-5-5-5-5-5------|
D|-0--3--0--3/5--0-(x3-3--5)|-0--3--0--3/5--0-3/5-5-5-5-5-5-5-5------|
G|-0--3--0--3/5--0-(x3-3--5)|-0--3--0--3/5--0-3/5-5-5-5-5-5-5-5------|
D|--------------------------|----------------------------------------|

D|-----------------------|
B|-----------------------|
G|-0-3-0-x--0-3-0--0-3-0-|
D|-0-3-0-x--0-3-0--0-3-0-|
G|-0-3-0-x--0-3-0--0-3-0-|
D|-----------------------|

VERSE ("I was walking down the street...")

D|-------------------------------------------------------------------|
B|-------------------------------------------------------------------|
G|0-0--x--3-3--x--5-5--x--3-3-x---x-0-0----------3 times-------------|
D|0-0--x--3-3--x--5-5--x--3-3-x-3-x-0-0------------------------------|
G|0-0--x--3-3--x--5-5--x--3-3-x-3-x-0-0------------------------------|
D|----------------------------x-3-x----------------------------------|


on fourth time:

D|-------------------------------------------------------------------|
B|-------------------------------------------------------------------|
G|0-0--x--3-3--x--5-5--x--0-3-0---0-3-0------------------------------|
D|0-0--x--3-3--x--5-5--x--0-3-0---0-3-0------------------------------|
G|0-0--x--3-3--x--5-5--x--0-3-0---0-3-0------------------------------|
D|-------------------------------------------------------------------|


Hook ("There aint no rest for the wicked...")

D|-------------------------------------------------------------------|
B|-------------------------------------------------------------------|
G|3/12-12--3/5-5-5-5-5-5----------------repeat until verse-----------|
D|3/12-12--3/5-5-5-5-5-5---------------------------------------------|
G|3/12-12--3/5-5-5-5-5-5---------------------------------------------|
D|-------------------------------------------------------------------|


PLAY VERSE AGAIN
PLAY CHORUS AGAIN

SOLO:(not 100 percent sure, but you can play the chorus here if you think it sounds off.)


D|--------------------------------------------------------------------|
B|-9/12--7/9--------9/12--7/9--------9/12--7/9------9/12-7/9-9/12-7/9-|
G|-------------(9)---------------(9)-------------(9)------------------|
D|-----------9-----------------9----------------9---------------------|
G|--------------------------------------------------------------------|
D|--------------------------------------------------------------------|



PLAY FINAL VERSE
THEN PLAY FINAL CHORUS.
END WITH

D|-----|
B|--0--|
G|--0--|
D|--0--|
G|--0--|
D|-----|

Hypocrite chords – Cage The Elephant V3

 I play it capo'ed on the 5th fret, I guess it just sounds the most accurate to me.

Chords:

 E G# C#m Bsus 

There's also two strange chords in the chorus that look like this:

e|--2--------|                  e|--4--------|
B|--2--------|                  B|--4--------|
G|--2--------|        and       G|--4--------|
D|--2--------|                  D|--4--------|
A|--x--------|                  A|--x--------|
E|--x--------|                  E|--x--------|

If you know what they are please tell me. For now, I'll use the abbreviation Y for 
the first one and Z for the second.


 E 
Tonight
 G# A E 
Bleeding from the holes in my face
 G# A E 
But I don't wanna give it away
    G# A E         
You did it for the family name
 G# A E 
Crash collide in to space

 G# A E 
You
 G# A E 
Your favorite color red
 G# A E 
I guess that I'm the hypocrite
 G# A E 
You're not responsible
 G# A 
I'm responsible



[Pre-Chorus:]
 C#m E 
Who's to blame
          C#m E 
Tell me who's to blame
         C#m Bsus 
Tell me who



[Chorus:]
 E                       Y
I don't wanna do that again
                Z         E 
I've been all over the place
                           Y
I watched the strawberry fields
             Z       E 
Dry up and wither away
                       Y
And if you ask me to stay
                  Z            E 
You know that's where I will be
                     Y
Don't wanna do that again
            Z
I'll never do that again

[Verse 2:]

 E 
You
 G# A E 
You call me baby blue
 G# A E 
For all the evil schemes I pull
 G# A E 
You sit and watch the waves break
 G# A E 
I made a lot of mistakes
 G# A 
Crash collide in to space

[Pre-Chorus]


[Chorus]


Aaaahooo

Aaaahooo


[Chorus]


Aaaahooo

Aaaahooo

Halo Tabs by Cage The Elephant

 Artist: Cage The Elephant
 Melophobia
Song: Halo

Guitar 1 Tuning: Standard
Guitar 2 Tuning: Standard
Guitar 3 Tuning: Standard

This tab is not exact, it's just my rendition of the song.

Corrections and suggestions are much appreciated.

Good luck deciphering this. ;p

Intro Riff:

Guitar 1:
e|-----------------------------------------------------------------|
B|-----------------------------------------------------------------|
G|-----------------------------------------------------------------|
D|-----3---5-3-0---0--------3---5-3-0---0----5-3-0-----------------|
A|-1-1-----------3------1-1-----------3----3-----------------------|
E|-----------------------------------------------------------------|

Guitar 2:
e|-----------------------------------------------------------------|
B|-----------------------------------------------------------------|
G|-----1-----------10-10----3-----------10-------------------------|
D|-----3-----------8--8-----1-----------8 -------------------------|
A|-----------------------------------------------------------------|
E|-----------------------------------------------------------------|

Verse:

Guitar 1:
e|-----------------------------------------------------------------|
B|-----------------------------------------------------------------|
G|-----------------------------------------------------------------|
D|-----------------------------------------------------------------|
A|-1-1-1-1-1-1-1-1-1-1-1-1-1-1-1-1---------------------------------|
E|---------------------------------3-3-3-3-3-3-3-3-3-3-3-3-3-3-3-3-| x12

Guitar 3:
e|--------------------------------------------15-13-9-13-----------|
B|-----------------------------------11-15-11----------------------|
G|-----------------------------------------------------------------|
D|-----------------------------------------------------------------|
A|-----------------------------------------------------------------|
E|-----------------------------------------------------------------| x2

Pre-Chorus:

Guitar 1:
e|-----------------------------------------------------------------|
B|-----------------------------------------------------------------|
G|-8-8--7-7--5-5--5-5--8-8--7-7--5-5--5-5--8-8--7-7--5-5--5-5-5-5-5|
D|-8-8--7-7--5-5--5-5--8-8--7-7--5-5--5-5--8-8--7-7--5-5--5-5-5-5-5|
A|-6-6--5-5--3-3--3-3--6-6--5-5--3-3--3-3--6-6--5-5--3-3--3-3-3-3-3|
E|-----------------------------------------------------------------|

Guitar 2:
e|-----------------------------------------------------------------|
B|-----------------------------------------------------------------|
G|-----------------------------------------------------------------|
D|-----------------------------------------------------------------|
A|-----------------------------------------------------------------|
E|-----------------------------------------------------------------|

Chorus:

Guitar 1:
e|-----------------------------------------------------------------|
B|-----------------------------------------------------------------|
G|-----------------7-7-7-7-7-7-7-7-----------------7-7-7-5-5-5-3-3-|
D|-8-8-8-8-8-8-8-8-7-7-7-7-7-7-7-7-8-8-8-8-8-8-8-8-7-7-7-5-5-5-3-3-|
A|-8-8-8-8-8-8-8-8-5-5-5-5-5-5-5-5-8-8-8-8-8-8-8-8-5-5-5-3-3-3-1-1-|
E|-6-6-6-6-6-6-6-6-----------------6-6-6-6-6-6-6-6-----------------| x2

Guitar 2:
e|-----------------------------------------------------------------|
B|-----------------------------------------------------------------|
G|-5/7----7/5----5/7----7-5-3----5/7----12/10----10/12/7----5-3----|
D|-----------------------------------------------------------------|
A|-----------------------------------------------------------------|
E|-----------------------------------------------------------------|

Guitar 3:
e|-----------------------------------------------------------------|
B|-----------------------------------------------------------------|
G|-1-1-1-1-1-1-1-1-7-7-7

Right Before My Eyes Acoustic chords – Cage The Elephant V2

 Its tuned a full step down. 
This is exactly as Matt plays it on the rooftop of the Marriott link watch?v=bc9WVJA6e2Q
The chord changes get moved a little when i submit the tab but just listen along for the changes. 

Intro  D F#m Bm A 

Verse 1
 D F#m 
timber shakes this trails they all de-rail 
                        Bm 
phony false and frail
                         A 
an empty ocean lost all way with no direction umm
 D F#m                           
golden needles names we take in vain 
                          Bm 
find it harder to remain nothings sacred 
 A 
waiting on that explanation 

Chorus
 D A 
Right before my eyes i saw the whole world lose control 
 Bm G A 
the whole world lost control before my eyes  aww huu!
 D A 
i fall to the floor couldn't take it anymore 
          Bm G A 
i can't take this anymore fix my mind aww huu

Verse 2
 D F#m Bm 
hold her dirty hands over the flames getting pleasure from the pain
                                A 
softly screaming the pistol that you raise has spoken 
 D F#m 
golden needles names we take in vain
                        Bm 
find it harder to remain nothings sacred
       A 
just waiting on that explanation

chorus

bridge
 G Bm 
everything i thought i knew fell to the side
 G Bm        
time went on and on couldn't see past my own eyes
              A Bm A 
past my eyes past my eyes past my eyes

chorus
Right before my eyes i saw the whole world lose control 
the whole world lost control before my eyes aww huu!

i fall to the floor couldn't take it anymore 
i can't take this anymore fix my mind aww huu

Come A Little Closer Acoustic chords – Cage The Elephant

 -------------------------------------------------------------------------------
              COME A LITTLE CLOSER (ACOUSTIC) - Cage the Elephant
-------------------------------------------------------------------------------
: evanryder1


Tabbed off of this video (http://www.youtube.com/watch?v=1AMAcrpceso)

Tuning: Standard


Chords Used: 

         C#m G#m F#m E A       
e|-------4------4-------2-------0------5-------------------------------------|
B|-------5------4-------2-------0------5-------------------------------------|
G|-------6------4-------2-------1------6-------------------------------------|
D|-------6------6-------4-------2------7-------------------------------------|
A|-------4------6-------4-------2------7-------------------------------------|
E|-------x------4-------2-------0------5-------------------------------------|


VERSE 1

{strumming pattern: d du udu udu udu}
                    
 C#m G#m 
Time shakes, found you at the water
                      F#m C#m 
At first you were my father, now I love you like a brother
 C#m G#m 
Earthquakes shake the dust behind you
                          F#m 
This world at times will blind you
                          C#m  E ( A F#m C#m 
Come a little closer then you'll see
 C#m 
Come on, come on, come on
 A F#m C#m 
Things arenÂ’'t always what they seem to be
 C#m 
Come on, come on, come on
 A F#m C#m 
Do you understand the things that you've been seein'
 C#m 
Come on, come on, come on
 A F#m C#m 
Do you understand the things that you've been dreaming
 A F#m C#m 
Come a little closer then you'll see



Then on the low E string it's 2---4---


VERSE 2

{strumming pattern: d du udu udu udu}

 C#m G#m 
Heartbreaks, the heavy world's upon your shoulders
                         F#m 
Will we burn or we just smolder 
                           C#m 
So now I know I found you there
 C#m G#m F#m 
Ooooh, wanna see if you can change it, change it
                           C#m E  ( A F#m C#m 
Come a little closer then you'll see
 C#m 
Come on, come on, come on
 A F#m C#m 
Things arenÂ’'t always what they seem to be
 C#m 
Come on, come on, come on
 A F#m C#m 
Do you understand the things that you've been seein'
 C#m 
Come on, come on, come on
 A F#m C#m 
Do you understand the things that you've been dreaming
 A F#m C#m 
Come a little closer then you'll see
 A F#m C#m 
Come a little closer then you'll see



VERSE 3 

{strumming pattern: short downstrums on each beat}

 C#m 
oh oh oh oh oh oh oh oh 
 A 
oh oh oh oh oh oh oh oh 
 F#m 
oh oh oh oh oh oh oh oh 
 C#m 
oh oh oh oh oh oh oh oh 
 A 
oh oh oh oh oh oh oh oh 
 F#m C#m F#m G#m  { A F#m C#m F#m G#m 
Ten thousand people stand alone now
 A F#m C#m       
  And in the evening the sun sets,
 F#m G#m A 
Tomorrow it will rise
      F#m C#m F#m <spa

Hypocrite chords – Cage The Elephant V2

 F A Bb F 
E|---1----1----1/5---5--5--5--6---6--6--6--1----1----1---|
B|---1----1----1/5---5--5--5--6---6--6--6--1----1----1---|
G|---2----2----2/6---6--6--6--7---7--7--7--2----2----2---|
D|---3----3----3/7---7--7--7--8---8--8--8--3----3----3---|
A|---3----3----3/7---7--7--7--8---8--8--8--3----3----3---|
E|---1----1----1/5---6--5--5--6---6--6--6--1----1----1---|



[Verse]:
 F A Bb F 
Tonight, bleeding from the holes in my face

 A Bb F 
But I don't want to give it away

 A Bb F A 
You did it for the family name

       Bb F 
Crash collide into space

 A Bb F F A Bb F 
You, your favorite color red

             A Bb F 
I guess that I'm the hypocrite

   A Bb F 
You're not responsible

 A Bb F 
I'm responsible

 F A Bb       

[Bridge]:

 F A 
Who's to blame

 F A 
Tell me who's to blame

 F A 
Tell me who

[Chorus]:
 F Bb 
I won't ever do that again

 Bb F 
I've been all over the place

 F Bb 
I watched the strawberry fields

 Bb F 
Dry up and wither away

 F Bb 
And if you ask me to stay

 Bb F 
You know that's where I will be

 F Bb 
Won't ever do that again

 Bb F 
Don't want to do that again

[Verse 2]:
 F A Bb     x2

 F A Bb  
You, call me baby blue

 F A Bb F 
For all the evil schemes I've pulled

 A Bb F 
We sit and watch the waves break

 A Bb 
I've made a lot mistakes

 F A Bb 
Crash collide into space

[Bridge]:
 F A 
Who's to blame

 F A 
Tell me who's to blame

 F A 
Tell me who

[Chorus]:
 F Bb 
I won't ever do that again

 Bb F 
I've been all over the place

 F Bb 
I watched the strawberry fields

 Bb F 
Dry up and wither away

 F Bb 
And if you ask me to stay

 Bb F 
You know that's where I will be

 F Bb 
Won't ever do that again

 Bb F 
Don't want to do that again

 Bb F                 
I'll never do do do do do do do that again

 Bb F 
Aoooooooooooo

Cigarette Daydreams chords – Cage The Elephant V2

 There are already basic chords for this song put out but as I was jamming today I 
kinda came up with a different version that also sounds pretty cool (Note: No 
strumming patterns indicated, just chords).

Verse
B -10--10--8--3--5--
G -11--11--9--4--6--
D -12--11--9--5--7--
(I can see you standing next to me...)

Verse 2
B -10--10--3--3--5--
G -11--11--4--4--6--
D -12--11--4--5--7--
(Cigarette, daydreams, you were only 17...)

Chorus
B -3--10--8--3--5--
G -4--11--9--4--6--
D -4--12--9--5--7--
(You can drive, all night...)

Interlude
B -8--5--10--3--
G -9--6--11--4--
D -9--7--12--5--

Verse 1
Verse 2
Chorus
Verse 1
Verse 2
Chorus
Interlude
Chorus

(I do not own Cage The Elephant or this song or anything related to them, so please don't sue me.)

Aint No Rest For The Wicked Acoustic intro Tabs by Cage The Elephant

 I wrote this intro for an acoustic cover I did and had requests to make a tab, so here 
it is:


E|-------------------------------------------------10--8-------------------------|
B|--------5h6p5----------------8--6-----6-----------------10h11------------------|
G|---------------7--5h7--------x-----7---------------------------10--------------|
D|--5--5-----------------------x-------------------------------------------3--3--|
A|--5--5-----------------8--8--------------10--10--------------------8--8--3--3--|
E|--3--3-----------------6--6--------------8---8---------------------6--6--1--1--|

Come A Little Closer chords – Cage The Elephant V3

 Come A Little Closer by Cage the Elephant
Tabbed/Edited by: JRAB

The lyrics have been bothering me and I just had to post a version with the 
proper. Props to JoshTheRipper and MrMusicManSaamto for writing this all 
out, but I just want people to learn the right words.  Im sure these are not 
100%, but every lyric website is different.  This one is defiantly the
closest though.

CAPO 4


Intro:  Am Em Dm Am 


Verse 1:

 Am Em 
Time shakes, found you at the water
                      Dm Am 
At first you were my father, now I love you like a brother
 Am Em 
Earthquakes shake the dust behind you
                         Dm 
This world at times will blind you
                          Am 
Still I know Ill see you there


Chorus:

 F Dm Am 
Come a little closer, then youll see
 Am 
Come on, come on, come on
 F Dm Am 
Things arent always what they seem to be
 Am 
Come on, come on, come on
 F Dm Am 
Do you understand the things that youve been seein
 Am 
Come on, come on, come on
 F Dm Am 
Do you understand the things that youve been dreamin
 F Dm Am 
Come a little closer, then youll see


Verse 2:

 Am Em 
Heartbreaks, the heavy worlds upon your shoulders
                         Dm 
Will we burn out or just smolder
                           Am 
Somehow I know I found you there
 Am Em 
Oooh, wanna see if you can change it,
 Dm Am 
Change it, Still I know I see you there


Chorus:

 F Dm Am 
Come a little closer, then youll see
 Am 
Come on, come on, come on
 F Dm Am 
Things aren't always what they seem to be
 F Dm Am 
Do you understand the things that youve been seein
 Am 
Come on, come on, come on
 F Dm Am 
Do you understand the things that youve been dreamin
 F Dm Am 
Come a little closer, then youll see
 F Dm Am 
Come a little closer, then youll see


Bridge:

 Dm 
Oo oo oo oo oo oo oo oo
 F 
Oo oo oo oo oo oo oo oo
 Dm 
Oo oo oo oo oo oo oo oo
 F 
Oo oo oo oo oo oo oo oo
 Dm 
Oo oo oo oo oo oo oo oo
 F Dm Am Dm E7 
Ooooo

 F Dm Am Dm E7 
Ten thousand people stand alone now
 F Dm Am             
And in the evening the sun sets,
 Dm E7 F 
Tomorrow it will rise

( F )         Dm Am Dm E7 F 
Tiiiiiiiime fliiiiies byyyyyy, they all sang along
( F )         Dm Am Dm E7 F 
Tiiiiiiiime fliiiiies byyyyyy, they all sang along
( F )         Dm Am Dm E7 F 
Tiiiiiiiime fliiiiies byyyyyy, they all sang along
( F )     Dm Am Dm E7 
Tiiiiiiiime fliiiiiiiies byyyyyyy, byyyyyyy


Chorus:

 F Dm Am 
Come a little closer, then youll see
 Am 
Come on, come on, come on