Tag: else

Like Everybody Else piano chords by Lennon Stella

[Verse 1]
Am
Run fast, run away
        Em             F
Run straight into the loneliness
   C             G
It isn't only home I miss
F            Am
Like the night all my friends got together
  Em             F
I heard about it afterwards
       Am              G
Didn't think was gonna hurt so much
Am
Why if I am doing so well
      C               F                  Dm
Did I build a wall between me and the world


[Chorus]
F                          G
Been drilled in my head forever
Em
Be better
         F                        G      Em
Turns out I'm just like everybody else
F                    G
Don't even go near a mirror
              Em
It'll kill ya
F                            G       Em
Trust me you don't wanna see yourself
         F
Fuck the noise

It's too late
          G          Em
It's the choices (ah)
F                         G      Em
Now I don't even wanna be someone
F                        G
What made me think I was special
               Em
I'm not special
F                            G      F
Turns out I'm like everybody else


[Verse 2]
Am
That's nice, Champagne
         Em             F
What a shame it doesn't work on me
   C                G
So don't go wasting your money
Am
Everybody in this room is too hard, too pretty

I'm tired
F                  Dm
I just wanna be nobody


[Chorus]
F                          G
Been drilled in my head forever
Em
Be better
         F                        G      Em
Turns out I'm just like everybody else
F                    G
Don't even go near a mirror
              Em
It'll kill ya
F                            G       Em
Trust me you don't wanna see yourself
         F
Fuck the noise

It's too late
          G          Em
It's the choices (oh)
F                         G      Em
Now I don't even wanna be someone
F                        G
What made me think I was special
               Em
I'm not special
F                            G      F
Turns out I'm like everybody else


[Instrumental]
G   Em F x2


[Outro]
F                        G
What made me think I was special
               Em
I'm not special
F                            G      Em   F
Turns out I'm like everybody else

Like Everybody Else chords by Lennon Stella

[Verse 1]
Am
Run fast, run away
        Em             F
Run straight into the loneliness
   C             G
It isn't only home I miss
F            Am
Like the night all my friends got together
  Em             F
I heard about it afterwards
       Am              G
Didn't think was gonna hurt so much
Am
Why if I am doing so well
      C               F                  Dm
Did I build a wall between me and the world


[Chorus]
F                          G
Been drilled in my head forever
Em
Be better
         F                        G      Em
Turns out I'm just like everybody else
F                    G
Don't even go near a mirror
              Em
It'll kill ya
F                            G       Em
Trust me you don't wanna see yourself
         F
Fuck the noise

It's too late
          G          Em
It's the choices (ah)
F                         G      Em
Now I don't even wanna be someone
F                        G
What made me think I was special
               Em
I'm not special
F                            G      F
Turns out I'm like everybody else


[Verse 2]
Am
That's nice, Champagne
         Em             F
What a shame it doesn't work on me
   C                G
So don't go wasting your money
Am
Everybody in this room is too hard, too pretty

I'm tired
F                  Dm
I just wanna be nobody


[Chorus]
F                          G
Been drilled in my head forever
Em
Be better
         F                        G      Em
Turns out I'm just like everybody else
F                    G
Don't even go near a mirror
              Em
It'll kill ya
F                            G       Em
Trust me you don't wanna see yourself
         F
Fuck the noise

It's too late
          G          Em
It's the choices (oh)
F                         G      Em
Now I don't even wanna be someone
F                        G
What made me think I was special
               Em
I'm not special
F                            G      F
Turns out I'm like everybody else


[Instrumental]
G   Em F x2


[Outro]
F                        G
What made me think I was special
               Em
I'm not special
F                            G      Em   F
Turns out I'm like everybody else

Else Tabs – Dog & Panther

 -------------------------------------------------------------------------------
                             ELSE - Dog & Panther
-------------------------------------------------------------------------------

C: 032010
F: --3211
Fmaj7: 003210
Em: 022000
G: 320003

      C
e|---------------------------------------------------
B|-----------1-----------1------------1-----------1--
G|-----0-----------0------------0-----------0--------
D|--------2-----------2------------2-----------2-----
A|--3-----------3------------3-----------3-----------
E|---------------------------------------------------
      F                        Fmaj7
e|-----------1-----------1------------0-----------0--
B|-----1-----------1------------1-----------1--------
G|--------2-----------2------------2-----------2-----
D|--3-----------3------------3-----------3-----------
A|---------------------------------------------------
E|---------------------------------------------------
      Em                       G
e|------------------------------------3-----------3--
B|-----------0-----------0---------------------------
G|-----0-----------0---------------------------------
D|--------2-----------2---------0-----------0--------
A|--2-----------2------------------2-----------2-----
E|---------------------------3-----------3-----------
Strum C on the last word

One is best
One is best
Two is so much sweeter
April's cold water falling
The dotted yellow line
Guides me back to bed

If this is life
This is life
Always moving on
No time for myself
Here is now
Who picks up my pieces

If this is it
This is it
All was well
I won’t get another chance
I can still feel her hands
I thought I found her

But she won’t
But she won’t
Think about the future
Or get a steady job
She's so much like my mom
Go now

Hold someone else

************************************

Somebody Else Is Taking My Place chords – Connie Francis

 C A7 D7 
Somebody else  is taking my place

 G7 C 
Somebody else  now shares your embrace

 F C A7 
While I am trying  to keep from crying

 D7 G7 
You go around with a smile on your face


 C A7 D7 
Little you care  for vows that you made

 G7 C 
How little you care  how much I have paid

 F C A7 
My heart is aching  my heart is breaking

     D7 G7 C 
For somebody's taking my place


            A7 D7 
Little you care  for vows that you made

 G7 C 
How little you care  just how much I’ve paid

 F C A7 
My heart is aching  my heart is breaking

     D7 G7 C 
For somebody's taking my place

Somebody Else Tabs – The 1975

 -------------------------------------------------------------------------------
                        // S O M E B O D Y  E L S E //
                                  
                                   The 1975
-------------------------------------------------------------------------------

: mileskane

Tuning: Standard (EADGBe)

Adam Hann's solo, tabbed from live performance at Guild of Students, Liverpool, 9/11/2015

e|---------------------------------------------------------------------------|
B|-15b17r15-------15-15-----------15b17r15-------15-15-----------------------|
G|----------14-17--------------------------14-17-----------------------------|
D|---------------------------------------------------------------------------|
A|---------------------------------------------------------------------------|
E|---------------------------------------------------------------------------|

e|---------------------------------------------------------------------------|
B|-15b17r15-------15-15-----------15b17r15-------15--------------------------|
G|----------14-17--------------------------14-17----16-14--------------------|
D|---------------------------------------------------------------------------|
A|---------------------------------------------------------------------------|
E|---------------------------------------------------------------------------|

e|---------------------------------------------------------------------------|
B|-15b17r15-------------15-15-----15b17r15-------15-15-----------------------|
G|----------16p14----17--------------------14-17-----------------------------|
D|----------------17---------------------------------------------------------|
A|---------------------------------------------------------------------------|
E|---------------------------------------------------------------------------|

e|---------------------------------------------------------------------------|
B|-15b17r15-------15-15-----------17-18-17-15----15--------------------------|
G|----------14-17-----------------------------17----17-----------------------|
D|---------------------------------------------------------------------------|
A|---------------------------------------------------------------------------|
E|---------------------------------------------------------------------------|

************************************

| b   Bend
| r   Release

************************************

I Cant Think Of Anyone Else chords – The Roulettes

       The Roulettes 1965
From the  Stakes and Chips album
  I Can't Think Of Anyone Else


Intro: C/ slow strum

 F G C      
I-I-I-I went round thinkin' I have found my-eye truuuue lovvvve
 F G C Dm   
But it seems she's been goin' round with a newwwwww lovvvve
 Dm Gm Bb Dm Gm Bb 
Please ask her why-eye,   she found that guy-eye

 Bb Am Dm Bb C 
Be-cause, I can't think, of any-one else, to cling toooo
 C 
You come to meeeee
 Am Dm Bb C     
I can't think, of any-one else, to cling toooo
 C 
Please help meeeee

 F G C  
I-I-I-I can't think of a reason why she should leavvvvve meeeee
 F G C Dm   
We were hap-py till she met that guy, she would leavvvvve meeeee
 Dm Gm Bb Dm Gm Bb 
Please ask if she-ee,   mistrusted me-ee

 Bb Am Dm Bb C 
Be-cause, I can't think, of any-one else, to cling toooo
 C 
You come to meeeee
 Am Dm Bb C     
I can't think, of any-one else, to cling toooo
 C 
Please help meeeee

Guitar and piano solo

 Dm Gm Bb Dm Gm Bb 
Please ask her why-eye,   she found that guy-eye

 Bb Am Dm Bb C 
Be-cause, I can't think, of any-one else, to cling toooo
 C 
You come to meeeee
 Am Dm Bb C     
I can't think, of any-one else, to cling toooo
 C 
Please help meeeee

Guitar outro

Played with a slow strumming pattern



 

A Goofy Movie – Nobody Else But You Danish chords – Misc Soundtrack

 F G C 
Indimellem kan du gøre mig splittertosset
        F G C 
Og din hjerne mangler undskyld far en skrue [Det' i orden]

         Em Am 
Men når alt det kikser for mig
       Em Am  
Er du den der bedst forstår mig 
 Dm C G 
Du er min bedste ven

        F G C 
Du kan blive så vred at jeg bliver helt forvirret 
       F G C 
Og så kokser det og jeg slår alt itu [Prosit! tak!]

         Em Am 
Men når alt er ved at skride 
         Em Am 
Står du altid ved min side 
 Dm C G 
Du er min bedste ven 

 F Em Am 
Du er min bedste ven
        Em Am Bb C 
Det er heldigt nok at vi er sammen
 F Em Am 
Du er min bedste ven 
 Dm Em F G 
Vi to kan få alt til at køre igen 

      F G C 
Dine vitser er så vandede og så gamle 
       F G C 
Den musik du hører er ikke for voksne mænd

         Em Am 
Men når livet går på krykker
        Em Am 
Og det hele går i stykker 
           Dm E 
Så er der en der duer kan du mon gætte hvem 

        F G 
Selvom han kan virke klodset 
        C Am 
Er han egentlig ikke så tosset 
        Dm Em 
Det er sikkert og vist 

 F Em Am 
At du er min bedste ven 
     Em Am Bb C 
Min følgesvend i tykt og tyndt og
 F Em Am  
Alt kan gå grueligt galt 
       Dm Em 
Dreje baglæns og rundt 
         F G 
Det kan bare blive ved 
          Em F 
Men hvis jeg når til bunds 
           G A 
Så er det dig der tager med 
     Dm F G C 
For du er min allerbedste ven

Nothing Else To Do chords – Admiral Freebee

 Admiral Freebee - Nothing Else To Do

tuning: standard
chords used:  C ,  G ,  Am ,  Bm ,  D ,  Em 

Chorus:
                          C G 
And I fell in love with you
                                 C G 
Cause there was nothing else to do
                          C G     
And I fell in love with you
                                 Am 
Cause there was nothing else to do
      Bm D 
And I knew it wouldn't make me blue

interlude:
 C G C G  

Verse:
        C G 
It all started when your chaperone said
        C G 
I was dancing too close to your head
              D Em              
And then the bouncer guy told me it was time for me to leave
       D Em 
Luckily I had some old tricks to pull up from my sleeve


pre-chorus:
       C Bm 
So we kissed in your car
        Am D 
And we drank from your purse
        C Bm 
What a great night in a small town
 Am Bm 
That is really cursed


Chorus:
                          C G 
And I fell in love with you
                                 C G 
Cause there was nothing else to do
                          C G     
And I fell in love with you
                                 Am 
Cause there was nothing else to do
      Bm D 
And I knew it wouldn't make me blue


verse:
               C G 
And then the case with Deborah
     C G 
Who jumped out of the birthday cake too soon
Oh the despair
 D Em 
  And I'm not afraid of losing you
 D Em 
  Cause I lost myself that year


pre-chorus:
             C Bm 
And then we kissed on the bus
        Am D 
Drove around in your daddy's hearse
        C Bm 
What a great night in a small town
 Am D 
That is really cursed


Chorus:
                          C G 
And I fell in love with you
                                 C G 
Cause there was nothing else to do
                          C G     
And I fell in love with you
                                 Am 
Cause there was nothing else to do
      Bm D 
And I knew it wouldn't make me blue


outro: 
(excactly the same progression as the chorus only with:)
shalalalalalala     -- fade out --

Enjoy!!

Like You And Everyone Else chords – Beth Hart V2

 Artist: Beth Hart
Title: Like You (And Everyone Else)
 My California
Words & Music: Beth Hart

CAPO I

 E 
I've been to Hell and it looked just like Heaven,
 C#m 
I made a friend and I felt forgiven,
 Asus2 F#M 
Like you, and everyone else...

 E 
I am ashamed but, I am just human,
 C#m 
With oceans of dreams, and seas of confusion,
 Asus2 F#M 
Like you... and everyone else...

         E 
CHORUS: Holding my breath when I just want to scream,
         B 
        Hidin' the face I don't want you to see,
         C#m Asus2 
        Making a mess of myself trying to be like you,
        And everyone else...

 E 
They put me away, and told me I'm crazy,
 C#m 
I don't belong but, but maybe they'll save me,
 Asus2 
Talk to the pain, it's been here forever,
 F#M 
The drugs make me sane, but they don't make me better..

         E        
CHORUS: Holding my breath when I just want to scream,
         B 
        Hiding the face, I don't want you to see,
         C#m Asus2 
        Making a mess of myself trying to be like you, like you...
         E 
        Losing my faith when I say I believe,
         B 
        Looking at you for the answers I need,
         C#m Asus2 
        Walking away from myself, trying to be like you, 

                            
                 D \ F# F#M E 
And everyone else haaa-aa haaaa-aa
       D \ F# F#M E 
Everyone else.. haaa-aaa haaaa-aaa
 D \ F# F#M E 
Talk to me, talk to me, talk to me... till this is over..
 D \ F# F#M C#M       D\ F# 
Talk to me, talk to me, talk to me... I am worth fighting for...


 E 
Holding my breath when I just want to scream,
 B 
Hiding the face, I don't want you to see,
 C#m Asus2 
Making a mess of myself trying to be like you, like you..
 E 
Losing my faith when I say I believe,
 B 
Looking at you for the answers I need,
 C#m Asus2 
Walking away from myself, trying to be like you, and everyone else.
 E 
(Talk to me, talk to me, talk to me, everyone else...
 B 
Talk to me, talk to me, talk to me, like you...
 C#m Asus2 
Talk to me, talk to me, talk to me, everyone else...)

 E 
Walk in the rain, let it fall on my face.
 C#m 
There's a shadow of doubt but a sky full of grace,
 F#M G#M Asus2 
I'm not like you, and everyone else



CHORDS USED (IN RELATION TO CAPO)

                  EADGBE
              E   = 022100
             C#M  = 446654
            Asus2 = 002200
             F#M  = 244222
               B  = 224442
            D \ F#  = 2X0232 
             G#M  = 466444

____________________________________________________________________________
 Vixen79


Shes Something Else Tabs by Easyworld

 She's Something Else

riff 1

e---------------------------------|
B---------------------------------|
G-9-9-9-9-9-9-9-9-8-8-8-8-8-8-8-8-|
D---------------------------------|
A-7-7-7-7-7-7-7-7-6-6-6-6-6-6-6-6-|
E---------------------------------|

e-------------------------------------------------|
B-------------------------------------------------|
G-14-14-14-14-14-14-14-14-12-12-12-12-12-12-12-12-|
D-------------------------------------------------|
A-12-12-12-12-12-12-12-12-10-10-10-10-10-10-10-10-|
E-------------------------------------------------|

e---------------------------------|
B---------------------------------|
G-9-9-9-9-9-9-9-9-8-8-8-8-8-8-8-8-|
D---------------------------------|
A-7-7-7-7-7-7-7-7-6-6-6-6-6-6-6-6-|
E---------------------------------|

e-------------------------------------------------|
B-------------------------------------------------|
G-14-14-14-14-14-14-14-14-14-14-12-12-14-14-12-12-|
D-------------------------------------------------|
A-12-12-12-12-12-12-12-12-12-12-10-10-12-12-10-10-|
E-------------------------------------------------|

riff 2 (this is very hard to hear but is essentially the same as the bassline)

e------------------------------|
B------------------------------|
G------------------------------|
D-2--9-11--6-6--11-9-7-7--6--4-|
A-2--9-11--6-6--11-9-7-7--6--4-|
E-0--7-9---4-4--9--7-5-5--4--2-|

Verse 1

riff 1
tonight we all smell the same
in the dark we look cool

riff one with
E            B       A        E
so it's safe to turn off your brain
E                  B
and what was that? i'm so
A                                  B
really really really i'm something else completely


Chorus 1

riff 2 x2 and
E                       B
can't hear me, can't see me
A       G#min   F#min
it's so much better this way
E                       B
believe me she's really
A       G#min   F#min
something else completely
(riff 2 stops)
A       E               B
something else completely


Verse 2 same as verse 1

show yourself in the perfect light
you kick them in so refusive
communicate in sounds all so mono-syllabic
and hello girls
yeah i'm so really really i'm really
i'm just something else completely


Chorus 2

riff 2 x4 and
E                       B
can't hear me, can't see me
A       G#min   F#min
it's so much better this way
E                       B
believe me she's really
A       G#min   F#min
something else completely
E                       B
can't hear me, can't see me
A       G#min   F#min
it's so much better this way
E                       B
believe me she's really
A       G#min   F#min
something else completely
(riff 2 stops)
A       E       C
something else


Middle 8 (each note played fast)

e-------------------------------------------------------------------------|
B-------------------------------------------------------------------------|
G-9-9-9-9-9-9-9-9-11-11-11-11-11-11-11-11-5-5-5-5-5-5-5-5-5-5-5-5-7-7-7-7-|
D-------------------------------------------------------------------------| x2
A-7-7-7-7-7-7-7-7-9--9--9--9--9--9--9--9--3-3-3-3-3-3-3-3-3-3-3-3-5-5-5-5-|
E-------------------------------------------------------------------------|

e-----------------------------------------------------------------|
B-----------------------------------------------------------------|
G-9-9-9-9-9-9-9-9-11-11-11-11-12-12-12-12-12-12-12-12-12-12-12-12-|
D-----------------------------------------------------------------|
A-7-7-7-7-7-7-7-7-9--9--9--9--10-10-10-10-10-10-10-10-10-10-10-10-|
E-----------------------------------------------------------------|

e-----------------------------------------------------------------------------|
B-----------------------------------------------------------------------------|
G-14-14-14-14-14-14-14-14-16-16-16-16-16-16-16-16-16bu18-18-18-18-18-18-18-18-|
D-----------------------------------------------------------------

Something Else Again Tabs by Chris De Burgh

                                           Artist - Chris De Burgh
                                         *************************
                                        Song - Something Else Again 
                                       *****************************
                                              Album - Crusader 
                                             ******************
                                             - Ayreon77
                                           **********************


INTRO
******
F Bb Am Bb X2

------------------------------------------------------------
VERSE 1
********
F                              Bb            F
Peace and understanding is the wisdom of her world
    Dm              C           Bb              C
She loves without a reason, she gives without a word
F                     C                             Dm
  There are those who make me smile, brighten up my day
            Bb           C              F      Bb  Dm  Bb
But oh this woman she is something else again


------------------------------------------------------------
VERSE 2
********
F                                  Bb             F
All the nights I've ever known are waiting in her eyes
Dm                 C       Bb                C
Sparkling like the silver, brimming like the wine
F             C                            Dm
 Other lovers laid me down, took my breath away
            Bb           C              F
But oh this woman she is something else again


------------------------------------------------------------
CHORUS
********
   Dm     C      Am
Oh she is such a friend to me
Bb      C      F
Holds me in my tears
                                   not so sure on the G# either that or C#   
         G#               C        ---------------------------------------    
She said Yes, you will be young again
         C#                    F
When you look back through the years


------------------------------------------------------------
01:31
SOLO 1
*******                                  s                 b rb
[--------------------------b-|-b--br----6\8-|-10-------10-12-12-10----]
[-------------------------5--|-6--6-5-------|-------11-------------13-]
[--------------------s--5----|--------5-----|----10-------------------]
[-------------s--3--5\7------|--------------|-------------------------]
[--h---s--3--3\5-------------|--------------|-------------------------]
[-0-1-3\5--------------------|--------------|-------------------------]

                s       B    B br                                
[-------------11\13-15-15-|-16-16-15-------|------------s---]
[---h---13----------------|----------16-13-|-13-14-16-16\18-]
[-12-14----14-------------|----------------|----------------]
[-------------------------|----------------|----------------]
[-------------------------|----------------|----------------]
[-------------------------|----------------|----------------]

      B br        B   
[-16-18-18-16-18-18-]
[-------------------]
[-------------------]
[-------------------]
[-------------------]
[-------------------]


------------------------------------------------------------
VERSE 3
********
   F                            Bb                C
So take your woman by the hand, love her till she dies
   Dm              C          Bb                C
Be strong when she needs you, hold her when she cries
F                     C                                Dm
  And if a man should say to you, love just brings you pain
              F              Bb             F
You tell him "No, my woman's something else again
Bb            C              F                    C              F
Oh my woman's something else again, oh my woman's something else again


------------------------------------------------------------
02:50  - this solos a lot lower, you have to really listen for the no

I Dont Wanna Love Somebody Else chords – A Great Big World

 A Great Big World - I Dont't Wanna Love Somebody Else
From the  Is There Anybody Out There? (2014)
Comment for any corrections and please rate


Capo 3

Intro:  D Em D Em 
Oh, I built a world around you
 D Em 
Oh, you had me in a dream, 
                            D 
I lived in every word you said
       A F# 
The stars had aligned
                   Bm A 
I thought that I found you
     G A D Em 
And I don't wanna love somebody else

 D Em 
Oh, we left it all unspoken
 D Em 
Oh, we buried it alive,
                               D  
And now it's screaming in my head
 D Em 
Oh, I shouldn't go on hoping
 D Em 
Oh, that you will change your mind,
                              D 
And one day we could start again
      A F# Bm A 
Well I don't care if loneliness kills me
 G A D A Bm G A G 
I don't wanna love somebody else

 D Em 
Oh, I thought that I could change you
 D Em D 
Oh, I thought that we would be the greatest story that I tell
     A F# Bm A 
I know that it's time to tell you it's over
     G A Bm G A D 
But I don't wanna love somebody else

I Dont Wanna Love Somebody Else Acoustic Tabs by A Great Big World

 A Great Big World - I Don't Wanna Love Somebody Else
From the  Is There Anybody Out There? (2014)
This is my first acoustic tab so comment for any corrections and please rate

The original is played with the capo on the 3rd fret, if you want to play it
with capo 3 you can use these tabs though I think that it might sound a little off-tone.


Capo 8

Intro:
   C
E|------------------|
B|--1---1---1---1---|
G|----0---0---0---0-|
D|------------------|
A|-3-3-3-3-3-3-3-3--|
E|------------------|

Verse 1: 2x                              1x
   C               F                     C
E|----------------------------------| E|------------------|
B|--1---1---1---1---1---1---1---1---| B|--1---1---1---1---|
G|----0---0---0---0---2---2---2---2-| G|----0---0---0---0-|
D|----------------------------------| D|------------------|
A|-3-3-3-3-3-3-3-3-3-3-3-3-3-3-3-3--| A|-3-3-3-3-3-3-3-3--|
E|----------------------------------| E|------------------|

Chorus: 1x
   G       E       F                       G       C
E|------------------------------------------------------------------|
B|--0---0---0---0---0---0---1---1---1---1---0---0---1---1---1---1---|
G|----0---0---1---1---2---2---2---2---2---2---0---0---0---0---0---0-|
D|------------------------------------------------------------------|
A|---------2-2-2-2-3-3-3-3-3-3-3-3-3-3-3-3---------3-3-3-3-3-3-3-3--|
E|-3-3-3-3---------------------------------3-3-3-3------------------|

Verse 2: 2x                              1x
   C               F                     C
E|----------------------------------| E|------------------|
B|--1---1---1---1---1---1---1---1---| B|--1---1---1---1---|
G|----0---0---0---0---2---2---2---2-| G|----0---0---0---0-|
D|----------------------------------| D|------------------|
A|-3-3-3-3-3-3-3-3-3-3-3-3-3-3-3-3--| A|-3-3-3-3-3-3-3-3--|
E|----------------------------------| E|------------------|

Verse 3: 2x                              1x
   C               F                     C
E|----------------------------------| E|------------------|
B|--1---1---1---1---1---1---1---1---| B|--1---1---1---1---|
G|----0---0---0---0---2---2---2---2-| G|----0---0---0---0-|
D|----------------------------------| D|------------------|
A|-3-3-3-3-3-3-3-3-3-3-3-3-3-3-3-3--| A|-3-3-3-3-3-3-3-3--|
E|----------------------------------| E|------------------|

Chorus: 1x
   G       E       F                       G       C
E|------------------------------------------------------------------|
B|--0---0---0---0---0---0---1---1---1---1---0---0---1---1---1---1---|
G|----0---0---1---1---2---2---2---2---2---2---0---0---0---0---0---0-|
D|------------------------------------------------------------------|
A|---------2-2-2-2-3-3-3-3-3-3-3-3-3-3-3-3---------3-3-3-3-3-3-3-3--|
E|-3-3-3-3---------------------------------3-3-3-3------------------|

Verse 4: 1x
   C          F          C          F          C
E|--------------------------------------------------------|
B|--------------------------------------------------------|
G|-0----------2----------0----------2----------0----------|
D|--------------------------------------------------------|
A|-3----------3----------3----------3----------3----------|
E|--------------------------------------------------------|

Chorus: 1x
   G       E       F                       G       Am
E|------------------------------------------------------------------|
B|--0---0---0---0---1---1---1---1---1---1---0---0---1---1---1---1---|
G|----0---0---1---1---2---2---2---2---2---2---0---0---2---2---2---2-|
D|------------------------------------------------------------------|
A|---------2-2-2-2-3-3-3-3-3-3-3-3-3-3-3-3---------0-0-0-0-0-0-0-0--|
E|-3-3-3-3---------------------------------3-3-3-3------------------|

Outro: 1x
   F               G                C
E|----------------------------------0-|
B|---1-------1-------0-------0------1-|
G|-------2-------2-------0-------0--0-|
D|----------

Somewhere Else chords – Travis

 Intro:

2x  Em Bm C G B7 Em C G 


Verse:

 Em Bm 

Home and away

 C C/B  ( Am )  G Bm Em 

Life goes on the same, bury the pain

 C C/B  ( Am )  G 

And hold on to love

 Em Bm C C /B( Am ) G B7 Em 

Hear the song, sing it along

 C C/B  ( Am )  G 

But what does it change


Bridge:

 B7 Em B7 Em 

Oh this life is so confusing

 B7 Em B7 D7 B7 

Feels like I'm always los-----ing


Verse:

 Em Bm 

We come in

 C C/B  ( Am )  G 

knowing everything

 B7 Em C C/B  ( Am )  G 

We don't say a word, till they teach it the way

 Em Bm C C/B (Am)  G B7 Em 

Words are found too close to the edge

 C C/B  ( Am )  G 

That we don't dare say.


Chorus:

 Em Bm C C/B  ( Am )  G 

And this will turn into something else,

 B7 Em C C/B  ( Am )  G 

something else

 Em Bm C C/B  ( Am )  G 

And when it does, I'll be somewhere else,

 B7 Em B7 

somewhere else where else

 C ,  C/B  ( Am ),  G B7 ,  Em C C/B  ( Am )  G 

Uh oh____ oh


Instrumental:

 Bm ,  Em ,  C ,  C/B  ( Am ),  G 


Verse:

 Em Bm C C/B  ( Am )  G 

And you say I should be myself

 B7 Em C C/B  ( Am )  G 

Despite all the wrong, dragging you back

 Em Bm C C/B  ( Am )  G B7 Em C C /B( Am ) G 

Forgiven and forgone and on, on and on


Bridge:

 B7 Em B7 Em 

But this life is so confusing

 B7 Em B7 D7 B7 

Feels like I'm always los-----ing


Chorus:

 Em Bm C C/B  ( Am )  G 

And this will turn into something else,

 B7 Em C C/B  ( Am )  G 

something else

 Em Bm C C/B  ( Am )  G 

And when it does, I'll be somewhere else,

 B7 Em B7 

somewhere else where else

 C ,  C/B  ( Am ),  G B7 ,  Em C C/B  ( Am )  G 

Uh oh____ oh___________


Outro:

 Em ,  Bm ,  C ,  C/B , (