Tag: empire

The Empire chords – Mxpx

 MXPX
The Empire feat. Mark Hoppus of Blink 182
Submitted by: jeremyunderground41

Key: C

Tuning: Standard EADGBe

Chords used:
 Am  -  x02210
 F  -   133211
 C  -   x32010
 G  -   320003
 Dm  -  xx0231
 Em  -  022000
 G/B  - x2x003


Intro: Drum Rolls

then

Am--F-Dm- x4


Verse 1:
 Am C F 
Sink your teeth into me
 Am C F 
Bite so hard it bleeds
   Am C 
I need some answers
 F Am C F 
more than ever please!


Refrain:
        Am G/B 
We are fallen angels
 C G/B F 
with no place to go
        Am G/B 
we are fallen angels
 C G/B F 
looking for a home


Chorus 1:
         Am 
You are dead you're
  C Em G 
alive but why?
            Am 
You're the empire
       C 
the rebellion but
 Em G F 
why? Just look at
your hands holding
them tight to your
 Am F 
chest! Look at your
hands what have they
             E E E Dm C G/B 
done to the wrists?


Post Chorus: Bass Solo
Am-C-F-- x2


Verse 2:
 Am C F 
Reach your head into
     Am C 
me stir up bitter
 F Am 
memories Steal my
 C F 
dreams while I'm
        Am C F 
asleep please!


(Repeat Refrain)
(Repeat Chorus 1)


Bridge: Beat switched from 3/4 to standard 4/4
    Am 
My head turned with
           G 
a doorknob as you
walked in the
 F 
room as you
               E 
walked in the room
    Am 
My head turned with
           G 
a doorknob as you
walked in the
 F 
room as you
              E   Drum Rolls
walked in the room


Chorus 2:
         Am 
You are dead you're
  C Em G 
alive but why?
            Am 
You're the empire
       C Em G 
the rebellion but why?
         Am 
You are dead you're
  C Em G 
alive but why?
            Am 
You're the empire
       C Em G 
the rebellion but why?


Outro: Am-C-G-- x2, Am(hold)

Awakening chords – Empire Of The Sun

 Song: Awakening by Empire of the Sun
: yaoifangirl

CAPO ON 1ST FRET


 Am Em 
Is there a part of me that's part of you?
 F Am 
If I shed a tear, baby do you bleed?
 Am Em 
Is there a heart in me that's close to you?
 F Am 
Is there a path to you I haven't seen?


 Am 
I can't ever
                 Em 
Ever tell you why
              F 
You are my horizon
                      Am 
I'll just hold my tongue
 Am 
I really wanna show you how I'm loving you
          Em 
In my life
           F 
In my life
          G 
In my life


 Am Em 
New innocence
          F Am 
Awakening in me, in me
Awakening
 Am Em 
New innocence
          F Am 
Awakening in me, in me
Awakening


 Am Em 
Crystal sparks when I spotted you
 F Am 
Ricocheting colours in a cavalcade
 Am Em 
Eye of the storm is a part of you
     F Am 
The Empire's Sun the eternal flame


 Am 
I can't ever
                 Em 
Ever tell you why
              F 
You are my horizon
                      Am 
I'll just hold my tongue
 Am 
I really wanna show you how I'm loving you
          Em 
In my life
           F 
In my life
          G 
In my life


 Am Em 
New innocence
          F Am 
Awakening in me, in me
Awakening
 Am Em 
New innocence
          F Am 
Awakening in me, in me
 Am Em F Am 
         Awakening
 Am Em F Am 
         Awakening


 Dm F Am 
  There's a higher way from here
            G Dm 
There's a higher way from here
            F Am 
There's a place we run from here
            Dm G 
There's a place that's far from here


 Am Em F Am Am Em F Am Am Em 
New innocence
          F Am 
Awakening in me, in me
Awakening
 Am Em 
New innocence
          F Am 
Awakening in me, in me
Awakening

 Am Em F Am Am Em F Am

Memories Of A Broken Heart Acoustic chords – Crown The Empire V3

 From what I can tell this is the way Crown The Empire plays it in their live acoustic version.
The video can be found here: http://www.youtube.com/watch?v=dkOaQdVD2Yg 

(The  Bridge, "you think this is the end your wrong," part of the song and 3rd chorus after 
aren't actually played in the live acoustic version so that part is up for speculation or can be ignored.)

Standard Tuning
Barre Chords


    Dm F 
As I stare into these ruins made by man
     Gm A# 
I tremble as I realize it's the end
          Dm F 
More and more I wonder what we could have done
     Gm A# 
But instead we wage a war that can't be won
      Gm A# 
Yeah instead we wage a war that can't be won


 Dm F 
I stand on the ash of all I've ever loved
                Gm 
Memories of a broken heart
          A#             
Now I'm alone in the dark.
 Dm F 
I know there's a way out when all hope is gone
                    Gm 
Find your light in a new dawn
                 A# Dm A# 
But there's no way to do this on our own.
 F C 
Whoa


    Dm 
I search for solace in this waste That I once called home
    A# F 
But my attempts of piecing life together leaves me alone
   
I can't repair what's been done
    C 
When the sky is as black as the ground that I walk on
 Dm A# 
And I can't give up on this  (And I can't give up on this)
 F 
I have to wonder what we could have done
 C                  
I have to (fuckin) wonder

       Dm A# 
But instead we wage a war that can't be won
       F C 
But instead we wage a war that can't be won


 Dm F 
I stand on the ash of all I've ever loved
                Gm 
Memories of a broken heart
          A#             
Now I'm alone in the dark.
 Dm F 
I know there's a way out when all hope is gone
                    Gm 
Find your light in a new dawn
                 A# Dm A# 
But there's no way to do this on our own.
 F C 
whoa

(live version ends here on Dm)



 Dm 
You think that this is the end?

You're wrong
 F 
You think that this is the end?

You're wrong
 Gm 
You think that this is the end?

You're wrong
 A#                       
This is the start of a new generation


 Dm F 
I stand on the ash of all I've ever loved
                Gm 
Memories of a broken heart
          A#             
Now I'm alone in the dark.
 Dm F 
I know there's a way out when all hope is gone
                    Gm 
Find your light in a new dawn
                 A# Dm A#  
But there's no way to do this on our own.
 F C 
Whoa
 Dm  
(Strum once)

I Cant Forget Tabs by Eye Empire

 Eye Empire: I Can't Forget

: mysticguitar77

YouTube Channel: MysticGuitar77

Date last modified: February 4, 2014

Tuning: Drop B (B,F#,B,E,G#,C#)

Riff 1 (w/ very light distortion, let all notes ring out)
C#|-----------------------------|
G#|-----6------6------6-------9-|
 E|---7---7------7------7---7---|
 B|-0--------0------0-----------|
F#|-----------------------0-----|
 B|-----------------------------|

Play Riff 1 x12   "Clearly I mention the intention of my words..."

Riff 2 (full distortion)   "So you say you'd take the blame..."
C#|------------------------------------------------------------------------|
G#|------------------------------------------------------------------------|
 E|------------------------------------------------------------------------|
 B|------------------------------------------------------------------------|
F#|------------------------------------------------------------------------|
 B|-2h3-0-0-0-0-2h3-0-0-0-0-0-0-0-0-2h3-0-0-0-0-/10-10-10-10-10-10-6-6-6-6-|

C#|-----------------------------------------------------------------|
G#|-----------------------------------------------------------------|
 E|-----------------------------------------------------------------|
 B|-----------------------------------------------------------------|
F#|-----------------------------------------------------------------|
 B|-2h3-0-0-0-0-2h3-0-0-0-0-0-0-0-0-6-6-6-6-6-6-6-6-3-3-3-3-3-3-3-3-|

Play Riff 2 x2   "No, you can't have a second chance..."

Riff 3   "I can't forget!!"
C#|---------------------------------------|
G#|---------------------------------------|
 E|---------------------------------------|
 B|-2h3-0-0-0-/10-10\-----2h3-0-0-0-/6-6\-|
F#|-2h3-0-0-0-/10-10\-----2h3-0-0-0-/6-6\-|
 B|-2h3-0-0-0-/10-10\-----2h3-0-0-0-/6-6\-|

Riff 4   "I can't forget all the things I've seen..."
C#|-------------------------------------|
G#|-3-3-3-3-3-3-3-3---------------------|
 E|-2-2-2-2-2-2-2-2---------------------|
 B|-0-0-0-0-0-0-0-0-7-7-7-7-10-10-10-10-|
F#|-0-0-0-0-0-0-0-0-7-7-7-7-8--8--10-10-|
 B|-0-0-0-0-0-0-0-0-7-7-7-7-8--8--10-10-|

C#|---------------------------------|
G#|---------------------------------|
 E|-7-7-7-7-7-7-7-7-7-7-7-7---------|
 B|-5-5-5-5-5-5-5-5-5-5-5-5-3-3-1-1-|
F#|-5-5-5-5-5-5-5-5-5-5-5-5-3-3-1-1-|
 B|-5-5-5-5-5-5-5-5-5-5-5-5-3-3-1-1-|

C#|-------------------------------------|
G#|-3-3-3-3-3-3-3-3---------------------|
 E|-2-2-2-2-2-2-2-2---------------------|
 B|-0-0-0-0-0-0-0-0-7-7-7-7-10-10-10-10-|
F#|-0-0-0-0-0-0-0-0-7-7-7-7-8--8--10-10-|
 B|-0-0-0-0-0-0-0-0-7-7-7-7-8--8--10-10-|

C#|----------------------------------|
G#|----------------------------------|
 E|-7-7-7-7-7-7-7-7------------------|
 B|-5-5-5-5-5-5-5-5------------------|
F#|-5-5-5-5-5-5-5-5------------------|
 B|-5-5-5-5-5-5-5-5-8888888844444444-|

Play Riff 1 x1
Play Riff 2 x3   "No, time will never heal my wounds..."
Play Riff 3 x1   "I can't forget!!"
Play Riff 4 x1   "I can't forget all the things I've seen..."
Play Riff 1 x10  "Clearly I mention the intention of my words..."

Fill 1
C#|-----------------------------------|
G#|-----------------------------------|
 E|-----------------------------------|
 B|-----------------------------------|
F#|-----------------------------------|
 B|-/3-210-/6-320-/8-320-3-/-10-10-10-|

Riff 5
C#|---------------------------------------------------|
G#|---------------------------------------------------|
 E|---------------------------------------------------|
 B|------5-6-5-0-5--6-3~---------5-6-5-0-5--6-6---3-3-|
F#|------3-6-5-0-5--6-3~---------3-6-5-0-5--6-6---3-3-|
 B|-3-210--6-5-0-5--6-3~----3-210--6-5-0-5--6-6-0-3-3-|

Play Riff 5 x2

Riff 6 (solo rhythm)
C#|-----------------------------------------------|
G#|-----------------------------------------------|
 E|--------5--------------------------------------|
 B|-3---0--5---0--3-5-6--3---0---6--6-6-0-3-3-3-3-

One Day Tabs by Eye Empire

 Eye Empire: One Day

: mysticguitar77

YouTube Channel: MysticGuitar77

Date last modified: February 3, 2014

Tuning: Drop B (B,F#,B,E,G#,C#)

Riff 1
C#|---------------------------------------------------------|
G#|---------------------------------------------------------|
 E|---------------------------------------------------------|
 B|-----------------------2b--------------------------------|
F#|---------------------------------------------------------|
 B|-2-2-2-2-2-2-2-2-0h2h3----0--2-2-2-2-2-2-2-2-2-2-0-0-0-0-|

C#|------------------------------------------------------------|
G#|------------------------------------------------------------|
 E|------------------------------------------------------------|
 B|-----------------------2b-----------------------------------|
F#|------------------------------------------------------------|
 B|-2-2-2-2-2-2-2-2-0h2h3----0-5-5-5-5-5-5-5-5-3-3-3-3-3-3-3-3-|

Play Riff 1 x2

Riff 2   "It's do or die you realize there's nothing left to say..."
C#|-----------------------------------------------------------------|
G#|-----------------------------------------------------------------|
 E|-----------------------------------------------------------------|
 B|-------------------------------2b--------------------------------|
F#|-----------------------------------------------------------------|
 B|-5*- -5*-2-2-2-2-2-2-2-2-0h2h3----0--2-2-2-2-2-2-2-2-2-2-0-0-0-0-|

C#|--------------------------------------------------------------|
G#|--------------------------------------------------------------|
 E|--------------------------------------------------------------|
 B|--------------------------------------------------------------|
F#|--------------------------------------------------------------|
 B|-5*- -5*-10-10-10-10-10-10-10-10-10-10-10-10-10-10-10-10-|

C#|----------------------------|
G#|----------------------------|
 E|----------------------------|
 B|----------------------------|
F#|----------------------------|
 B|-8-8-8-8-8-8-8-8-8-8-8-8-8\-|

Riff 2 note: Impossible to tab this harmonic bit without it looking like
             a mess. Basically what you do is start at the 5th fret
             natural harmonic and slowly work your way down the fret board
             constantly strumming while hitting the natural harmonics all
             the way down, similar to how you play "Mudshovel" by Staind. 
             The second time, start at around the 2nd fret natural harmonic
             and work your way up to the 5th fret harmonic. The last time
             I'll let you figure it out on your own, if you listen to
             the song, it'll make sense.

Riff 3   "I'll have my say one day..."
C#|--------------------------------------------|
G#|--------------------------------------------|
 E|--------------------------------------------|
 B|-2-2--0-0--2--8\----------------------------|
F#|-2-2--0-0--2--8\----------------------------|
 B|-2-2--0-0--2--8\--2-2-2-2-0-8-8-8-8-5-5-5-5-|

C#|--------------------------------------------------|
G#|--------------------------------------------------|
 E|--------------------------------------------------|
 B|-2-2--0-0--2--8\----------------------------------|
F#|-2-2--0-0--2--8\----------------------------------|
 B|-2-2--0-0--2--8\--5-5-5-5-5-5-5-5-3-3-3-3-3-3-3-3-|

C#|--------------------------------------------|
G#|--------------------------------------------|
 E|--------------------------------------------|
 B|-2-2--0-0--2--8\----------------------------|
F#|-2-2--0-0--2--8\----------------------------|
 B|-2-2--0-0--2--8\--2-2-2-2-0-8-8-8-8-7-7-7-7-|

C#|-----------------------------------------------------------------|
G#|-----------------------------------------------------------------|
 E|-----------------------------------------------------------------|
 B|-------------------------------------------------3-3-3-3-3-3-3-3-|
F#|------

Johnny Ringo Tabs by Crown The Empire V2

 Johnny Ringo Tabs - Crown the Empire
Tuning Drop c#
(Just Tabs so people can learn if they want great song!)

Intro 
(0.00-0.20 onward) 

D#|---------------------------------------------------------------------|
A#|---------------------------------------------------------------------|
F#|---------------------------------------------------------------------|(x2)  
C#|--0-----0-------8-8---7-7---3----5-----5-------7-7-7-7--2-2-2-2--0~--| 
G#|--0(x5)-0(x5)---8-8---7-7---3----5(x5)-5(x5)---7-7-7-7--2-2-2-2--0~--|
C#|--0-----0-------8-8---7-7---3----5-----5-------7-7-7-7--2-2-2-2--0~--|

Verse
(0.35-0.54)

(drum/Vocal fill no guitar)

Chorus 
(0.55-1.17) 

D#|--------------------------------------------------------------------|
A#|--------------------------------------------------------------------|
F#|--------------------------------------------------------------------| (x2)
C#|---0--------8-------5-----------------------------------------------|
G#|---0(x12)---8(x6)---5(x6)-------------------------------------------|
C#|---0--------8-------5-----------------------------------------------|

D#|-------------------------------------------------------------------------|
A#|-------------------------------------------------------------------------|
F#|-------------------------------------------------------------------------|
C#|--0-----0-------8-8---7-7---3-----5------5--------7-7-7-7--2-2-2-2---0~--|
G#|--0(x5)-0(x5)---8-8---7-7---3-----5(x5)--5(x5)----7-7-7-7--2-2-2-2---0~--|
C#|--0-----0-------8-8---7-7---3-----5------5--------7-7-7-7--2-2-2-2---0~--|

Verse 
(1.18-1.33)

(drum/Vocal fill no guitar)

Bridge 
(1.34-1.52)

D#|-------------------------------------------------------------------------|
A#|-------------------------------------------------------------------------|
F#|-------------------------------------------------------------------------|
C#|---0-----------11---------8----------11----------------------------------|
G#|---0(x12)------11(x12)----8(x12)-----11(x10)-----------------------------|
C#|---0-----------11---------8----------11----------------------------------|

(short guitar riff) 

Chorus 2
(1.53-2.24) 
               (x2)
D#|[--------------------------]--------------------------------------|
A#|[--------------------------]--------------------------------------|
F#|[--------------------------]--------------------------------------| 
C#|[---0--------8-------5-----]---8-------5------0-------3-----------|
G#|[---0(x12)---8(x6)---5(x6)-]---8(x6)---5(x6)--0(x6)---3(x6)-------|
C#|[---0--------8-------5-----]---8-------5------0-------3-----------|

D#|----------------------------------------------------------------------|
A#|----------------------------------------------------------------------|
F#|----------------------------------------------------------------------|
C#|---8------5------0--------0~------------------------------------------|
G#|---8(x6)--5(x6)--0(x12)---0~------------------------------------------|
C#|---8------5------0--------0~------------------------------------------|

Bridge 2 Fill 
(2.25-2.43)

(No Guitar)

Breakdown
(2.44-3.14) 
(Bar strings and strum to pattern in song)  
D#|---------------------------------------------------------------------|
A#|---------------------------------------------------------------------|
F#|---------------------------------------------------------------------|
C#|---x-----------------------------------------------------------------|
G#|---x-----------------------------------------------------------------|
C#|---x-----------------------------------------------------------------|

Breakdown Fill 
(3.15-3.24)

Outro 
(3.25-4.19)

D#|--------------------------------------------------------------------|
A#|--------------------------------------------------------------------|
F#|--------------------------------------------------------------------| (x4)
C#|--0-------8-

The One You Feed chords – Crown The Empire

 Chords for The One You Feed by Crown The Empire. Standard tuning, no capo. Tabbed 
by lafawafa, hope you all enjoy!

Chords used:
 Bm  - 224432
 G  - 320003
 A  - 002220
 E  - 022100
-----------------------

Intro:  Bm G A  (x2)

Verse 1:

         Bm 
In the wake of my broken dreams
         G A 
In the dirt and the dust and the days that felt like weeks.
                             E 
I found the person that I'm meant to be

              Bm 
'Cuz when I feel like giving up
        G A 
When death was closing in, I shut my eyes
       E 
And black out the darkness with light from inside

Chorus:

             Bm      
I've given more than what I've got
             G 
I've given all of what I'm not
                    A E 
I've watched this war consume all that we could become
(Facing my fears in the dark)
          Bm 
But if I die before it's done
                    G 
Please take these words, my final thoughts
           A E 
The only way to shine your light is in the dark.
Never let life kill your spark

Replay Intro:  Bm G A  (x2)

Verse 2:

               Bm 
This is the fallout
Yeah it's the end of the world
                 G A 
Go spread the noise to everyone and let them all know you heard
            Bm 
A system meltdown
It's time we expose
 G A 
   The cause of chaos is our own

Chorus:

             Bm      
I've given more than what I've got
             G 
I've given all of what I'm not
                    A E 
I've watched this war consume all that we could become
(Facing my fears in the dark)
          Bm 
But if I die before it's done
                    G 
Please take these words, my final thoughts
           A E 
The only way to shine your light is in the dark.
Never let life kill your spark

Bridge:

 Bm 
Never let life kill your spark
 G 
Never let life kill your spark
 A 
Facing my fears in the dark

(Single strums here)
             Bm      
I've given more than what I've got
             G 
I've given all of what I'm not
                    A E 
I've watched this war consume all that we could become
          Bm 
But if I die before it's done
                    G 
Please take these words, my final thoughts
           A E 
The only way to shine your light is in the dark.
Never let life kill your spark

Outro:

Replay Intro:  Bm G A  (x2)
 A Bm Bm 
Never let life kill your spark

The War Isnt Over Yet Tabs by Eye Empire

 Eye Empire: The War Isn't Over Yet

: mysticguitar77

YouTube Channel: MysticGuitar77

Date last modified: January 17, 2014

Official band website: http://www.eyeempire.com

Tuning: Drop B (B,F#,B,E,G#,C#)

Riff 1
C#|------------------------------------------------------------|
G#|------------------------------------------------------------|
 E|------------------------------------------------------------|
 B|------------------------------------------------------------|
F#|------------------------------------------------------------|
 B|-0-0-6-6-6-6-0--6-6-6-6-6-0-6/7-0-0-6-6-6-6-0--6-6-6-6-6b-3-|

Play Riff 1 x4

Riff 2 (w/ phaser)   "Fighting for my life..."
C#|----------------------------------------------|
G#|----------------------------------------------|
 E|-7~-----------------7~--------10-10-10-10-10b-|
 B|-x----6~---3~-------x----6~---x--x--x--x--x---|
F#|-5~---6~---3~-------5~---6~---8--8--8--8--8b--|
 B|------6~---3~------------6~-------------------|

C#|----------------------------------------------|
G#|----------------------------------------------|
 E|-7~--------10b~-----7~------------------------|
 B|-x----6~---x--------x-----6~---3~-------------|
F#|-5~---6~---8b~------5~----6~---3~-------------|
 B|------6~------------------6~---3~-------------|

Riff 3   "War took a warm heart, left a cold one..."
C#|-----------------------------------------------|
G#|-----------------------------------------------|
 E|-----------------------------------------------|
 B|-----------------------------------------------|   x2
F#|-----------------------------------------------|
 B|-0-0-1110--1-0-0-3-0-3-5-0-0-1110--6-5-0-3-5-1-|
        ***                     ***

C#|-----------------------------------------------------|
G#|-----------------------------------------------------|
 E|-----------------------------------------------------|
 B|-----------------------------------------------------|
F#|-----------------------------------------------------|
 B|-1110-1110--310-310-310-6\-1110-1110--650-650-650-3b-|
    ***  ***   *** *** ***    ***  ***   *** *** ***

C#|--------------------------------------------------|
G#|--------------------------------------------------|
 E|--------------------------------------------------|
 B|--------------------------------------------------|
F#|--------------------------------------------------|
 B|-0-0-1110--1-0-0-3-0-3-5-0-0-1110--650-650-650-5b-|
        ***                     ***   *** *** ***

Play Riff 1 x2

Riff 4 (w/ phaser)   "Dreams of suicide, thinking it could free my mind..."
C#|---------------------|
G#|---------------------|
 E|-7~------------------|
 B|-x----6~---3~--------|   x3
F#|-5~---6~---3~--------|
 B|------6~---3~--------|

C#|----------------------------|
G#|----------------------------|
 E|-7~--------10-10-10-10-10b~-|
 B|-x----6~---x--x--x--x--x----|
F#|-5~---6~---8--8--8--8--8b~--|
 B|------6~--------------------|

Play Riff 3 x1   "War took a warm heart, left a cold one..."
Play Riff 1 x2   "It's just a game!!"

Fill 1
C#|-------------------------------------------------------------------|
G#|-------------------------------------------------------------------|
 E|-------------------------------------------------------------------|
 B|-6~---3~---1~------3--0~---------------------0~--------------------|
F#|-6~---3~---1~------3--0~---------------------0~--------------------|
 B|-6~---3~---1~------3--0~---------------------0~--------------------|

Riff 5
C#|------------------------------------------------|
G#|------------------------------------------------|
 E|---10\-------5b------13b----10\-----------------|
 B|---x---------x-------x------x---------5--6--x-3-|
F#|---8\\-------3b-6b---11b----8\\-------5--6--x-3-|
 B|-0-----3-2-0----6b-0------0-----3-2-0-5--6--x-3-|
    *                 *      *

C#|------------------------------------------------------

Victim Tabs by Eye Empire

 Eye Empire: Victim

: mysticguitar77

YouTube Channel: MysticGuitar77

Date last modified: January 17, 2014

Official band website: http://www.eyeempire.com

Tuning: Drop C (C,G,C,F,A,D)

Riff 1   "Flip the switch, start the machine..."
D|-----------------------------------------------------------------|
A|-----------------------------------------------------------------|
F|-----------------------------------------------------------------|
C|-----------------------------------------------------------------|
G|---------------------------------6-6-6-6-2-2-2-2-----------------|
C|-3p0-0-0-0-0-0-0-0-0-0-0-0-0-0-0-----------------5-5-5-5-4-4-4-4-|

Play Riff 1 x2   "Take away the lies that feed..."

Riff 2   "You better take the reigns, police yourself..."
D|-------------------------------------------------------------|
A|-------------------------------------------------------------|
F|-------------------------------------------------------------|
C|-------------------------------1--1-1-1-1-1-1-3--3-3-3-3-3-3-|
G|-------------------------------1--1-1-1-1-1-1-3--3-3-3-3-3-3-|
C|-3p0-0-0-0-0-0-0-0-0-0-0-0-0-0-1--1-1-1-1-1-1-3--3-3-3-3-3-3-|

D|---------------------------------------------------------------|
A|---------------------------------------------------------------|
F|---------------------------------------------------------------|
C|---------------------------------------------------------------|
G|-------------------------------6-6-6-6-2-2-2-2-----------------|
C|-1p0-0-0-0-0-0-0-0-0-0-0-0-0-0-----------------5-5-5-5-4-4-4-4-|

Riff 3   "Now you know..."
D|---------------------------------------------------------|
A|---------------------------------------------------------|
F|---------------------------------------------------------|
C|----------------------------3-3-3--3-3-3--3-3-3--3-3-3-3-|
G|----------------------------1-1-1--1-1-1--1-1-1--1-1-1-1-|
C|-3p0-0--0-0-0--0-0-0--0-0-0-1-1-1--1-1-1--1-1-1--1-1-1-1-|

D|----------------------------------------------|
A|----------------------------------------------|
F|----------------------------------------------|
C|-5-5-5-5-5-5-5-5-5-5-5-5-5-5-5-5-8--8-7\-3-5\-|
G|-5-5-5-5-5-5-5-5-5-5-5-5-5-5-5-5-8--8-7\-3-5\-|
C|-5-5-5-5-5-5-5-5-5-5-5-5-5-5-5-5-8--8-7\-3-5\-|

Riff 4   "Push it through your hollow head..."
D|-----------------------------------------------------------------|
A|-----------------------------------------------------------------|
F|-7-7-7-7-7-7-7-7-7-7-7-7-7-7-7-7-----------------9-9-9-9-9-9-9-9-|
C|-7-7-7-7-7-7-7-7-7-7-7-7-7-7-7-7-7-7-7-7-7-7-7-7-7-7-7-7-7-7-7-7-|
G|-5-5-5-5-5-5-5-5-5-5-5-5-5-5-5-5-7-7-7-7-7-7-7-7-7-7-7-7-7-7-7-7-|
C|-0-0-0-0-0-0-0-0-0-0-0-0-0-0-0-0-7-7-7-7-7-7-7-7-7-7-7-7-7-7-7-7-|

D|-----------------------------------------------------------------|
A|-----------------------------------------------------------------|
F|-----------------------------------------------------------------|
C|-3-3-3-3-3-3-3-3-3-3-3-3-3-3-3-3-5-5-5-5-5-5-5-5-4-4-4-4-4-4-4-4-|
G|-3-3-3-3-3-3-3-3-3-3-3-3-3-3-3-3-5-5-5-5-5-5-5-5-5-5-5-5-5-5-5-5-|
C|-3-3-3-3-3-3-3-3-3-3-3-3-3-3-3-3-5-5-5-5-5-5-5-5-4-4-4-4-4-4-4-4-|

D|-----------------------------------------------------------------|
A|-----------------------------------------------------------------|
F|-7-7-7-7-7-7-7-7-7-7-7-7-7-7-7-7-----------------9-9-9-9-9-9-9-9-|
C|-7-7-7-7-7-7-7-7-7-7-7-7-7-7-7-7-7-7-7-7-7-7-7-7-7-7-7-7-7-7-7-7-|
G|-5-5-5-5-5-5-5-5-5-5-5-5-5-5-5-5-7-7-7-7-7-7-7-7-7-7-7-7-7-7-7-7-|
C|-0-0-0-0-0-0-0-0-0-0-0-0-0-0-0-0-7-7-7-7-7-7-7-7-7-7-7-7-7-7-7-7-|

D|-----------------------------------------------------------------|
A|-----------------------------------------------------------------|
F|-----------------------------------------------------------------|
C|-8-8-8-8-8-8-8-8-8-8-8-8-8-8-8-8-3-3-3-3-3-3-3-3-4-4-4-4-1-1-1-1-|
G|-8-8-8-8-8-8-8-8-8-8-8-8-8-8-8-8-3-3-3-3-3-3-3-3-5-5-5-5-1-1-1-1-|
C|-8-8-8-8-

Rise Wake Up Tabs by Eye Empire

 Eye Empire: Rise (Wake Up)

: mysticguitar77

YouTube Username: MysticGuitar77

Date last modified: January 17, 2014

Official band website: http://www.eyeempire.com

Tuning: Drop A# (A#,F,A#,D#,G,C)

Riff 1
 C|----------------------------------------------|
 G|----------------------------------------------|
D#|----------------------------------------------|
A#|----------------------------------------------|
 F|----------------------------------------------|
A#|-0h1-1-1-1-1-4p1-1-1-1-1--1-1-1-1-1p0-0-0-0-0-|

 C|-----------------------------------------|
 G|-----------------------------------------|
D#|-----------------------------------------|
A#|-----------------------------------------|
 F|-----------------------------------------|
A#|-0h1-1-1-1-1-4p1-1-1-1-1--6b-6-4-6-4-1-4-|

 C|----------------------------------------------|
 G|----------------------------------------------|
D#|----------------------------------------------|
A#|----------------------------------------------|
 F|----------------------------------------------|
A#|-0h1-1-1-1-1-4p1-1-1-1-1--1-1-1-1-1p0-0-0-0-0-|

 C|----------------------------|
 G|----------------------------|
D#|----------------------------|
A#|----------------------------|
 F|--------------/6-4----------|
A#|-6b-6-4-6-4-1------6b-4-1-4-|

Riff 2   "You thought you owned me..."
 C|----------------------------------------------|
 G|----------------------------------------------|
D#|----------------------------------------------|
A#|----------------------------------------------|
 F|----------------------------------------------|
A#|-0h1-1-1-1-1-1-1-1-1-1-1--1-1-1-1-1p0-0-0-0-0-|
        * * * * * * * * * *  * * * *     * * * *

 C|-------------------------------------------|
 G|-------------------------------------------|
D#|-------------------------------------------|
A#|-------------------------------------------|
 F|-------------------------------------------|
A#|-0h1-1-1-1-1-1-1-1-1-1-1--1-1-1-1-7-6-4-6b-|
        * * * * * * * * * *  * * * * * * *

 C|----------------------------------------------|
 G|----------------------------------------------|
D#|----------------------------------------------|
A#|----------------------------------------------|
 F|----------------------------------------------|
A#|-0h1-1-1-1-1-1-1-1-1-1-1--1-1-1-1-1p0-0-0-0-0-|
        * * * * * * * * * *  * * * *     * * * *

 C|----------------------------------------|
 G|----------------------------------------|
D#|----------------------------------------|
A#|----------------------------------------|
 F|----------------------------------------|
A#|-0h1-1-1-1-1-1-1-1-1-1-1-6b-6-4-6-4-1-4-|
        * * * * * * * * * *

 C|----------------------------------------------|
 G|----------------------------------------------|
D#|----------------------------------------------|
A#|----------------------------------------------|
 F|----------------------------------------------|
A#|-0h1-1-1-1-1-1-1-1-1-1-1--1-1-1-1-1p0-0-0-0-0-|
        * * * * * * * * * *  * * * *     * * * *

 C|-------------------------------------------|
 G|-------------------------------------------|
D#|-------------------------------------------|
A#|-------------------------------------------|
 F|-------------------------------------------|
A#|-0h1-1-1-1-1-1-1-1-1-1-1--1-1-1-1-7-6-4-6b-|
        * * * * * * * * * *  * * * * * * *

 C|-------------------------------------------------------------------------|
 G|-------------------------------------------------------------------------|
D#|-------------------------------------------------------------------------|
A#|-------------------------------------------------------------------------|
 F|-----------------------------------------------------------/6-4----------|
A#|-0h1-1-1-1-1-1-1-1-1-1-1--1-1-1-1-1p0-0-0-0-0-6b-6-4-6-4-1------6b-4-1-4-|
        * * * * * * * * * *  * * * *     * * *

Bleed Tabs by Eye Empire

 Eye Empire: Bleed

: mysticguitar77

YouTube Username: MysticGuitar77

Date last modified: January 16, 2014

Official band website: http://www.eyeempire.com/

Tuning: Drop A# (A#,F,A#,D#,G,C)

Riff 1
 C|-----------------------------------------------------------|
 G|-----------------------------------------------------------|
D#|-----------------------------------------------------------|
A#|--------------------------------------------8-8-8-8-8-8-8\-|
 F|-------------------------------5------------8-8-8-8-8-8-8\-|
A#|-2222-2--5-2-0-2-3-1--0-2-0-2----2-0-2-3-1--8-8-8-8-8-8-8\-|
    ****

 C|---------------------------------------------------------------|
 G|---------------------------------------------------------------|
D#|---------------------------------------------------------------|
A#|-------------------------------8-8-8-8-8-8-8-8-5-5-5-5-3-3-3-3-|
 F|-------------------------------8-8-8-8-8-8-8-8-5-5-5-5-3-3-3-3-|
A#|-2222-2--5-2-0-2-3-1--0-2-0-2--8-8-8-8-8-8-8-8-5-5-5-5-3-3-3-3-|
    ****

Play Riff 1 x2

Riff 2   "Eyes closed, the inner workings, new beginnings..."
 C|-----------------------------------------------------------------|
 G|-----------------------------------------------------------------|
D#|-----------------------------------------------------------------|
A#|-----------------------------------------------------------------|
 F|-2-2-2-2-222-5-5-5-5-5-5-5-5-5-5-0-0-0-0-000-8-8-8-8-8-8-5-5-5-5-|
A#|-2-2-2-2-222-5-5-5-5-5-5-5-5-5-5-0-0-0-0-000-8-8-8-8-8-8-5-5-5-5-|
    * * * * *** * * * * * * * * * * * * * * *** * * * * * * * * * *

 C|-----------------------------------------------------------------|
 G|-----------------------------------------------------------------|
D#|-----------------------------------------------------------------|
A#|-----------------------------------------------------------------|
 F|-2-2-2-2-222-5-5-5-5-5-5-5-5-5-5-0-0-0-0-0-0---------------------|
A#|-2-2-2-2-222-5-5-5-5-5-5-5-5-5-5-0-0-0-0-0-0-8-8-8-8-8-8-8-8-8-8-|
    * * * * *** * * * * * * * * * * * * * * * *

 C|-----------------------------------------------------------------|
 G|-----------------------------------------------------------------|
D#|-----------------------------------------------------------------|
A#|-----------------------------------------------------------------|
 F|-----------------------------------------------------------------|
A#|-2-2-2-2-2-2-5-5-5-5-5-5-5-5-5-5-0-0-0-0-0-0-8-8-8-8-8-8-5-5-5-5-|

 C|-----------------------------------------------------------------|
 G|-----------------------------------------------------------------|
D#|-----------------------------------------------------------------|
A#|-----------------------------------------------------------------|
 F|-----------------------------------------------------------------|
A#|-2-2-2-2-2-2-5-5-5-5-5-5-5-5-5-5-8-8-8-8-8-8-8-8-8-8-8-8-8-8-8-8-|

 C|----------------------------|
 G|----------------------------|
D#|----------------------------|
A#|----------------------------|
 F|----------------------------|
A#|-5-5-5-5-5-5-5-5-5-5-5-5-5\-|

Riff 3   "Bleed, now you know you wanna, see..."
 C|-----------------------------------------------|
 G|-----------------------------------------------|
D#|-----------------------------------------------|
A#|-----------------------------------------------|
 F|-----------------------------------------------|
A#|-5\-2-2--0-2-2--0-2-2-5\-2-2-2--0-2-2--0-2-2-0-|

 C|------------------------------------------------|
 G|------------------------------------------------|
D#|---------------------------------------------5*-|
A#|-------------------------5--5-5-x-x-8\-5-5-7----|
 F|-------------------------5--5-5-x-x-8\-5-5-7----|
A#|-5\-2-2--0-2-2--0-2-2-0--5--5-5-x-x-8\-5-5-7----|

Play Riff 3 x2   "See, now you know you wanna bleed..."
Play Riff 1 x1
Play Riff 2 x1   "Restrain, the weakest thought, em

Memories Of A Broken Heart Acoustic chords – Crown The Empire V2

 This is how Crown The Empire actually plays Memories of a Broken Heart on an 
acoustic guitar, shown when they played acoustic shows throughout 2013 while on 
tour. I know I already have a chord tab by the exact name, but that was actually 
chords to the original song, not an acoustic rendition.  lafawafa, hope you all enjoy! 

If you want the timing, strum pattern, etc. a reference video is here:
http://www.youtube.com/watch?v=tqc_vOf190I. Palm muting the chords at the end of 
the second verse ("But instead we wage a war that can't be won") is optional, but 
recommended for accuracy.

Chords (all barre chords):
 Dm  - 557765
 F  - 133211
 G  - 355433
 Bb  - 688766
 C  - 335553

Tuning: Drop B
-----------------------------

Verse 1:

       Dm F 
As I stare into these ruins made by man
      G Bb 
I tremble as I realize it's the end
           Dm F 
More and more I wonder what we could have done
        G Bb 
But instead we wage a war that can't be won
         G Bb 
Yeah instead we wage a war that can't be won

Chorus:

 Dm F 
   I stand on the ash of all I've ever loved
                 G 
Memories of a broken heart
          Bb 
Now I'm alone in the dark.

 Dm F 
   I know there's a way out when all hope is gone
                    G 
Find your light in a new dawn
                Bb Dm Bb 
But there's no way to do this on our own
 F C 
Own

Verse 2:
                Dm 
I search for solace in this waste that I once called home
           Bb F 
But my attempts of piecing life together leaves me alone
                                           C 
I can't repair what's been done when the sky is as black as the ground that I walk on

 Dm Bb 
   But I can't give up on this

(But I can't give up on this)
 F 
   I have to wonder what we could have done
 C 
   I have to wonder

       Dm Bb 
But instead we wage a war that can't be won
       F C  (play progressively louder as you 
transition into the chorus if you palm muted this part)
But instead we wage a war that can't be won

Chorus:

 Dm F 
   I stand on the ash of all I've ever loved
                 G 
Memories of a broken heart
          Bb 
Now I'm alone in the dark.

 Dm F 
   I know there's a way out when all hope is gone
                    G 
Find your light in a new dawn
                Bb Dm Bb 
But there's no way to do this on our own
 F C 
Own

Strum Dm once to finish it!

There Will Be No Christmas chords – Crown The Empire V2

 Chords used:  G Bb Em Am C D Eb G Bb 
Sometimes I wish we'd never spoken
 G Bb 
Sometimes I wish we'd never met
 Em Am 
Sometimes I wish our love had never had a chance to start
     C                           ( D )
And sometimes I wish I had you back

 G Bb 
I wish this love had been in autumn
 G Bb 
That way it'd float off in the breeze
 Em 
Instead this dark December
     Am C 
I'm all alone and colder than I've ever been
               D 
And since you left

                  G 
There will be no Christmas
                  Bb 
At least not for me
               Em D C 
This year I'm all alone waiting for the spring
                  G 
There will be no Christmas
              Bb 
No Santa, no sleigh
                     Em D C 
But I hope that you know
                 Am 
That through it all 
                    Eb G 
I still wish you a happy holiday

 G Bb G Bb Em Am C D G 
There will be no Christmas
                  Bb 
At least not for me
               Em D C 
This year I'm all alone waiting for the spring
                  G 
There will be no Christmas
              Bb 
No Santa, no sleigh
                 Em D C 
I hope that you know
                 Am 
That through it all
                    Eb Am 
I still wish you a happy holiday
 Eb D G 
Holiday oh, oh, oh