Tag: erase

A Wound Time Cant Erase chords – Stonewall Jackson

 G D7 
Have you found since you turned me down

                                 G 
The one that you were searching for

                       D7 
Are you glad that you made me sad

                                       G 
For you know I vowed to love you ever more
 

          D7 
What did you have in mind when you broke this heart of mine

         C G 
Are you laughing in my face

         D7 
Darling what can I do when you say we are through

            C D7 G 
You left a wo-o-und time can't erase

 
                       D7 
Tell me dear are you satisfied

                           G 
To be footloose and fancy free

                              D7 
Is it power you want for the things that you have done

                                    G 
What you gained I guess I'll never see


          D7 
What did you have in mind when you broke this heart of mine

         C G 
Are you laughing in my face

         D7 
Darling what can I do when you say we are through

            C D7 G 
You left a wo-o-und time can't erase

 
 

Erase Me Tabs – Kid Cudi V4

 -------------------------------------------------------------------------------
                             Kid Cudi - Erase Me
-------------------------------------------------------------------------------
: Mathosh


Tuning:



e|---------------------------------------------------------------------------|
B|---------------------------------------------------------------------------|
G|---------------------------------------------------------------------------| }x4
D|---------------------------------------------------------------------------|
A|-7-7-7-7--11-11-11-11-4-4-4-4-4-4-4-4--------------------------------------|
E|-5-5-5-5--9--9--9--9--2-2-2-2-2-2-2-2--------------------------------------|


e|---------------------------------------------------------------------------|
B|---------------------------------------------------------------------------|
G|---------------------------------------------------------------------------|
D|---------------------------------------------------------------------------|
A|-12-12-12-12--11-11-11-11-9-9-9-9------------------------------------------|
E|-10-10-10-10--9--9--9--9--7-7-7-7------------------------------------------|

e|---------------------------------------------------------------------------|
B|---------------------------------------------------------------------------|
G|---------------------------------------------------------------------------|
D|---------------------------------------------------------------------------|
A|-12-12-12-12--11-11-11-11-14-14-14-14-14-14-14-14--------------------------|
E|-10-10-10-10--9--9--9--9--12-12-12-12-12-12-12-12--------------------------|


e|---------------------------------------------------------------------------|
B|---------------------------------------------------------------------------|
G|---------------------------------------------------------------------------|
D|---------------------------------------------------------------------------|
A|-7-7-7-7-7-7-7-7--2-2-2-2-2-2-2-2--4-4-4-4-4-4-4-4--12-12-12-12-12-12-12-12|
E|-5-5-5-5-5-5-5-5--0-0-0-0-0-0-0-0--2-2-2-2-2-2-2-2--10-10-10-10-10-10-10-10|







************************************

| /   slide up
| \   slide down
| h   hammer-on
| p   pull-off
| ~   vibrato
| +   harmonic
| x   Mute note
| b   Bend
| pb  Pre-bend
| br  Bend release
| pbr Pre-bend release
| brb Bend release bend

************************************