Tag: everything

Everything Now chords by Arcade Fire ver 2

[Video Intro]
C

C          Gm
I'm in the black again
              C
Can't make it back again
       Gm
We can just pretend
               F
We'll make it home again
               C
From everything now

[Instrumental]
F C G
F C G

[Verse 1]
              F
Every inch of sky's got a star
              C
Every inch of skin's got a scar
                        G
I guess that you've got everything now
              F
Every inch of space in your head
                      C
Is filled up with the things that you read
                   G
I guess you've got everything now
                    F
And every film that you've ever seen
                 C
Fills the spaces up in your dreams

That reminds me

G
(Everything now)
G
(Everything now)

[Verse 2]
              F
Every inch of road's got a sign
              C
And every boy uses the same line
                       G
I pledge allegiance to everything now
                F
Every song that I've ever heard
                       C
Is playing at the same time, it's absurd
                             G
And it reminds me, we've got everything now
                     F
We turn the speakers up till they break
                      C
'Cause every time you smile it's a fake!

Stop pretending, you've got…

[Chorus]
 G
(Everything now!) I need it
 G
(Everything now!) I want it
 F
(Everything now!) I can't live without
 F
(Everything now!) I can't live without
 C
(Everything now!)
 C
(Everything now!)
 C
Everything now

[Instrumental]
G

F C G
F C G

[Verse 3]
              F
Every ancient road's got a town
                 C
Daddy, how come you're never around?
                 G
I miss you, like everything now
                F
Mama, leave the food on the stove
                      C
Leave your car in the middle of the road
                       G
This happy family with everything now
                     F
We turn the speakers up till they break
                      C
'Cause every time you smile it's a fake!

Stop pretending, you've got...

[Chorus]
 G
(Everything now!) I need it
 G
(Everything now!) I want it
 F
(Everything now!) I can't live without
 F
(Everything now!) I can't live without
 C
(Everything now!)
 C
(Everything now!)

           G                                                    F
'Til every room in my house is filled with shit I couldn't live without

[Chorus]
 F
(Everything now!) I need it
 F
(Everything now!) I can't live without
 C
(Everything now!)
 C
(Everything now!)
 C
 Everything now

[La La La section]

G

F
La La La La La La La
C
La La La La La La La
G
La La La La La La La

[Instrumental]
F C G

G
Stop pretending, you've got...

[Chorus]
 F
(Everything now!) I need it
 F
(Everything now!) I want it
 C
(Everything now!) I can't live without
 C
(Everything now!) I can't live without
 G
(Everything now!) I can't live
 G
(Everything now!)

          F                                                    C
And every room in my house is filled with shit I couldn't live without
 C
(Everything now!) I need it
 C
(Everything now!) I can't live without

 G
(Everything now!) I can't live
 G
(Everything now!)
              F                                          C
Every inch of space in my heart is filled with something I'll never start

[Outro]
             G
The ashes of everything now
                F
And then you're black again
              C
Can't make it back again
                G
From everything now

Everything Is Beautiful chords – Ray Stevens Vsion 2

 C F C 
Jesus loves the little children

 G7 C G7 
All the little children of the world

         C 
Red and yellow black and white

          F C 
They are precious in his sight

       F G7 C 
Jesus loves the little children of the world

 
                          Am D7 
Everything is beautiful  in its own way

                 G7 C 
Like the starry summer night or a snow covered winter's day

                        Am D7 
Everybody's beautiful  in their own way

             G7 C 
Under God's heaven the world's gonna find the way

 
                  G7 F C 
There is none so blind as he who will not see

                       G7 F C 
We must not close our minds  we must let our thoughts be free

                G7 F C 
For every hour that passes by you know the world gets a little bit older

                      G7 F C 
It's time to realize that beauty lies in the eyes of the beholder

 
                          Am D7 
Everything is beautiful  in its own way

                 G7 C 
Like the starry summer night or a snow covered winter's day

                        Am D7 
Everybody's beautiful  in their own way

             G7 C 
Under God's heaven the world's gonna find the way


              G7 F C 
We shouldn't care about the length of his hair or the color of his skin

             G7 F C 
Don't worry about what shows from without but the love that lives within

           G7 F C 
And we're gonna get it all together now everything gonna work out fine

             G7 
Just take a little time to look on the good side my friend and
 
 F C 
straighten it out in your mind


                           Am D7 
Everything is beautiful  in its own way

                 G7 C 
Like the starry summer night or a snow covered winter's day

                        Am D7 
Everybody's beautiful  in their own way

             G7 C 
Under God's heaven the world's gonna find the way

Everything That Rises Must Converge chords – Venus

 
Song: Everything that rises must converge
 Venus
 The Red Room
Year: 2006
Tabber: beranger80@hotmail.com



Unusual chords: 

In the intro:
Dm:    x 5 7 7 6 5
Dsus4: x 5 7 7 8 5

In the verse: 
D:     10 12 12 10 x x
Gm:    x 10 12 12 11 x
Gsus2: x 10 12 12 10 x



Intro (0:00)

 Dm Dsus4 Dm Dsus4 Dm Dsus4 Gm A Dm Dsus4 Dm Dsus4 Dm Dsus4 A# A 



Verse (0:18)

 Dm Gm Gsus2 
A life, as hard as it can be
 Dm Gm Gsus2 
A word that makes you breathe
 Dm Gm Gsus2 
A friend you didn't wanna hurt
     Gm A 
The hand you always give



Verse (0:28)

 Dm Gm Gsus2 
The way you can see through my thoughts
 Dm Gm Gsus2 
The languages we learn
 Dm Gm Gsus2 
A secret promise to yourself
 A# A 
Within' I'm concerned



Chorus (0:37)

 Gm Dm A Dm  
Everything that rises, everything that rises
 Gm Dm A 
Everything that rises must converge



Verse (0:46)

 Dm Gm Gsus2 
The poetry you write in prose
 Dm Gm Gsus2 
And silence we suppose
 Dm Gm Gsus2 
One more thought, one move less
  Gm A 
Details you confessed



Verse (0:56)

 Dm Gm Gsus2 
It's like something we deserve
 Dm Gm Gsus2 
Like something we expect
 Dm Gm Gsus2 
It's like something that converge
      A# A 
That we cannot detect



Chorus (1:05)

 Gm Dm A Dm  
Everything that rises, everything that rises
 Gm Dm A 
Everything that rises must converge
 Gm Dm A Dm  
Everything that rises, everything that rises
 Gm Dm A 
Everything that rises must converge



Bridge (1:23)

 Gm Dm A Dm Gm Dm A 



Verse (1:32)

 Dm Gm Gsus2 
The unbelievable dreams you had
 Dm Gm Gsus2 
The one that came true
 Dm Gm Gsus2 
The unconceivable words of love
     Gm A 
I never said to you



Verse (1:42)

 Dm Gm Gsus2 
This never-ending story
 Dm Gm Gsus2 
We try to understand
 Dm Gm Gsus2 
That impossible world of peace
        A# A 
That we've got in our hands



Chorus (1:51)

 Gm Dm A Dm  
Everything that rises, everything that rises
 Gm Dm A 
Everything that rises must converge
 Gm Dm A Dm  
Everything that rises, everything that rises
 Gm Dm A 
Everything that rises must converge 



Chorus (2:10)

 Gm Dm A Dm  
Everything that rises, everything that rises
 Gm Dm A 
Everything that rises must converge
 Gm Dm A Dm  
Everything that rises, everything that rises
 <

Everything Stays chords – Rebecca Sugar V4

 This is the version Marceline sings on Adventure Time.
 
 G C 
Let’s go in the garden
 G B7 
You’ll find something waiting
 Em C 
Right there where you left it
 G D 
Lying upside down

 G C  
When you finally find it
 G B7 
You’ll see how it’s faded
 Em C                                    
The underside is lighter 
          G D 
When you turn it around
        
 
            Am  
Everything stays 
                 Em 
Right where you left it
            D 
Everything stays
 B7 Em 
But it still changes
 G7 C 
Ever so slightly
 Cm7 G 
Daily and nightly
              D 
In little ways
      B7 Em 
When everything stays

Everything Stays chords – Rebecca Sugar V3

 Rebecca Sugar - Everything Stays

Featured in Adventure Time S07 E13 "The Dark Cloud"


I took the song's performance with ukulele (link below) and tabbed it for guitar.


Standard tuning, tempo around 130


Intro:  G C G C 


Verse:
 G C 
Let’s go to the garden
 G B 
You’ll find something waiting
 Em C 
Right there where you left it
 G D 
Lying upside down

 G C 
When you finally find it
 G B 
You’ll see how it’s faded
     Em C                                      
The underside is lighter 
          G D 
When you turn it around
        

Chorus: 
( D )         Am  
Everything stays 
( Am )             Em        
Right where you left it
( Em )         D 
Everything stays
 H EM 
But it still changes
 G C 
Ever so slightly
 Cm G 
Daily and nightly
( G )        D 
In little ways
     ( D )         G C G C 
When everything stays


After this play Verse *2 over Verse melody w/ Lah-Di-Dahs:
( G C  /  G H  /  Em C  /  G D ) *2


Chorus2:
( D )         Am  
Everything stays 
( Am )             Em     
Right where you left it
( E m)         D 
Everything stays
 H Em 
But it still changes
 G C 
Ever so slightly
 Cm G 
Daily and nightly
( G )        D 
In little ways
     ( D )         G       
When everything stays
( G )       C 
Ever so slightly
 Cm G 
Daily and nightly
( G )        D 
In little ways
     ( D )         G C G C 
When everything stays

Everything Counts chords – Depeche Mode V2

 Everything Counts - Depeche Mode
 Del Bradley              NO CAPO
------------------------------------------
If you like this tab how about being a good sport and hitting the 5 star button, ta :)
------------------------------------------
TIP : F can be played as Fmaj7 for easier quick chord changes.
------------------------------------------      
! = Emphasised single downstrums
__________________________________________

PRE INTRO (Industrial clanging):  C  |  C  |  C 

INTRO RIFF 1:  Am Am7 Am G7 C  |  Am F Am G F  |  Am Am7 Am G7 C  |  Am F Am G F  
                        !  !           ! !             !  !           ! !
VERSE 1:
     Am 
The handshake seals the contract
          Am7 Am E 
From the con-tract there's no turning back
     E7 E Dm                    
The turning point of a career
    E Em Am Am Am 
In Korea being insincere
     E E7 Am Am7 Am 
The holiday was fun-packed
     E Am Am 
The contract, still intact

CHORUS:
     C G F Am 
The grabbing hands grab all they can
 C G7 F D7sus2 Am Am 
All for themselves , af-ter    all
     C G F Am 
The grabbing hands grab all they can
 C G F Dm   
All for themselves , after all
           Am G F 
It's a competitive world  ! !
 C G F F 
Everything counts in large amounts

INSTRUMENTAL RIFF 1:  Am Am7 Am G7 C  |  Am F Am G F  |  Am Am7 Am G7 C  |  Am F Am G F  
                               !  !           ! !             !  !           ! !
VERSE 2:
     Am 
The graph on the wall
           Am7 Am E 
Tells the sto-ry , of it all
                Dm 
Picture it now see just how
     E E7 Em Am Am Am 
The lies and deceit gained a little more power
 E E7 Am        
Confidence ,   taken in
      E E7 E Am Am 
By a suntan and a grin

CHORUS:
     C G F Am 
The grabbing hands grab all they can
 C G7 F D7sus2 Am Am 
All for themselves , af-ter    all
     C G F Am 
The grabbing hands grab all they can
 C G F Dm   
All for themselves , after all
           Am G F 
It's a competitive world  ! !
 C G F F 
Everything counts in large amounts

INSTRUMENTAL RIFF 1:  Am Am7 Am G7 C  |  Am F Am G F  
                               !  !           ! !      

Everything And Nothing Less Live chords – Chris Mcclarney

 Title: Everything and nothing less
Key: A

Intro
 F#m A2 E Bm7 F#m A2 Bm7 


Verse 1
 F#m A2 E Bm7 
Humbly I stand, an offering
 F#m A2 E 
With open hands, Lord I bring everything


Pre Chorus
                        D 
Everything and nothing less
    F#m E 
My best, my all
                      D 
You deserve my every breath
    F#m E 
My life, my song

Chorus
 A2 F#m E4 
I surrender, I surrender all
     A2 F#m E4 
Oh, I surrender, I surrender all


Instrumental   F#m A2 E Bm7 


Verse 2
 F#m A2 E Bm7 
Lord take control, I trust You
 F#m A2 E Bm7 
I'm letting go to give You 

Pre chorus....

Chorus X2....


Bridge
 D E 
Everything and nothing less, I give You
 F#m A/C# 
Everything and nothing less, forever
 D 
Everything and nothing less 
 E F#m 
Oh, my life is Yours
            A/E 
Completely Yours 
 D E 
Everything and nothing less, I give You
 F#m A/C# 
Everything and nothing less, forever
 D 
Everything and nothing less 
 E F#m 
Oh, my life is Yours
            A/E 
Completely Yours 

Chorus.....

Pre Chorus......

Chorus X2.......

Be Everything chords – The Lonely Forest

 -------------------------------------------------------------------------------
                   The Lonely Forest - Be Everything
-------------------------------------------------------------------------------



*No Capo*



Tuning:  E A D G B E  Standard


G#/C:  X-3-6-5-X-X

F/C#:  1-4-3-X-X-X


(INTRO)


 C# F# C# F# C# F# A#m G# 


(VERSE)


  C# F# C# 
Sitting with him on the rocks
         F# C# F# 
He'd been my strongest support, 
       A#m G# 
the arms that I'd run to
 C# F# C# 
I knew sooner or later
        F# C# 
It'd come to the point 
            F# A#m G# 
when the truth would snake its way out
     C# F# 
And I will always 
  C# F# 
look up to him
    C# F# 
Together we share 
      A#m G# 
ourrrr father's sin
 C# F# C# F# 
I am afraid of myself and the darkness 
         C# F# A#m G# 
that's rising inside of my heart


(PRE-CHORUS)


    A#m G# F# G# 
So I hope I can trust you 
         A#m G# F# 
Because I know I can't trust myself


(CHORUS)


 F# G# A#m 
Open my eyes remove 
      G#/C C# F# F/C# 
anything in the waaaaaaaay
       A#m G# F# 
And please be all I need
  F#m C# F# C# F# C# 
Be everythiiiiiiiiiiiiiiiiiiiing

 F# A#m G# 

(VERSE)

       C# F# C# 
And walking away from the water
     F# C# F# 
I felt that a weight had been lifted
         A#m G# 
He'd shone through the clouds
      C# F# C# 
And one day when I have a boy
     F# C# F# 
And I can't keep this from him
  A#m G# 
His father's sin no


(PRE-CHORUS)


 A#m G# F# G# 
I will try and trust you 
         A#m G# F#  
Because I know I can't trust myself


(CHORUS)


 F# G# A#m 
Open my eyes remove 
      G#/C C# F# F/C# 
anything in the waaaaaaaay
       A#m G# F# 
And please be all I need
  F#m C# F# F/C#  
Be everythiiiiiiiiiiing
       A#m G# F# 
And please be all I need
  F#m C# F#m C# F#m C# 
Be everythiiiiiiiiiiiiiiiiiiiing

 F#m A#m G# C# F#m C# F#m C# 
Be everythiiiiiiiiiiiiiiiiiiiing

 F#m A#m G# C# 
Be everything
__________________________
Hope you enjoyed this one!

Stay KingerZ

-Matt

All White Everything chords – Jj

 Artist: JJ
Song: All White Everything
 V
Tabber Email: aliceanne

No Capo

         C        
Time to pray,
                         F 
Time to say what's been on my mind
              C 
Let's find a way home
          F                 
So I can mend my restless soul

 C F G 
Maybe I don't wanna know everything that you've been told
       G Am 
It's all Greek to me
                  F 
Maybe you should go
       G 
Maybe you should know
                 C 
Yeah you should know

           F G G7 
I've been up all winter for someone like you
            C F G                        
And I know that you've been up all winter for someone like me

 Am F 
Don't want to leave
               G 
I need you to be here
 G6 
Where you left me
 Am F 
If you don't, I'll leave you
                    G 
You go do what you need
                          C 
Don't stop 'till you bleed

 C F G G6 C F G G6 Am                                       
All white everything from my face to my wings
 F 
All white everything from my nose to my sins
 Am                                       
All white everything from my face to my wings
 F 
All white everything from my nose to my sins
 Am                                       
All white everything from my face to my wings
 F 
All white everything, all white everything
 Am                                       
All white everything from my face to my wings
 F 
All white everything, all white everything

C (not played)
What you know about that 

No, you don't know a thing
 G 
What you know about that 

No, you don't know a thing
 F 
What you know about that 

No, you don't know a thing
 G 
What you know about that 
 G6      
No, you don't know a thing

 C 
What you know about that 

No, you don't know a thing
 G 
What you know about that 

No, you don't know a thing
 F 
What you know about that 

No, you don't know a thing

 G G6 Am G 
And bitches get in trouble for asking too much
             Am 
Have I said enough
      F 
Have I 
              C 
Have I said enough
             G 
Have I said enough
           Am 
Cause I'm talking too much
                               F G 
I'm starting to blush when I think about the things we did on that bus

 C F G

I Already Forgot Everything You Said chords – The Dig

    


         A             A/G#            F#       A    (E,F#,A/E,F#,A)
Well you look into the water and the fish are dead
         A             A/G#            F#       A    (E,F#,A/E,F#,A)
You close your eyes and all you see is red
         A             A/G#            F#       A    (E,F#,A/E,F#,A)
Now you're all tied up inside your head
         A             A/G#            F#       A    (E,F#,A/E,F#,A)
And I already forgot everything you said


         A             A/G#            F#       A    (E,F#,A/E,F#,A)
When you think of all the things that I said to you
         A             A/G#            F#       A    (E,F#,A/E,F#,A)
They wouldn't cut to the bone if they weren't true
         A             A/G#            F#       A    (E,F#,A/E,F#,A)
You can keep em locked away inside your head
         A             A/G#            F#       A    (E,F#,A/E,F#,A)
But I already forgot everything you said


         A             A/G#            F#       A    (E,F#,A/E,F#,A)
Well you came to me when the night was young
         A             A/G#            F#       A    (E,F#,A/E,F#,A)
But you could not stay for very long
         A             A/G#            F#       A    (E,F#,A/E,F#,A)
You were looking for a place to unload you head
         A             A/G#            F#       A    (E,F#,A/E,F#,A)
And I already forgot everything you said


         A             A/G#            F#       A    (E,F#,A/E,F#,A)
Well you left with him but he changed his mind
         A             A/G#            F#       A    (E,F#,A/E,F#,A)
You left everything that you love behind
         A             A/G#            F#       A    (E,F#,A/E,F#,A)
Now I would take you back but the feelings dead
         A             A/G#            F#       A    (E,F#,A/E,F#,A)
And I already forgot everything you said


         A             A/G#            F#       A    (E,F#,A/E,F#,A)
Now you can ease your heart you can ease your mind
         A             A/G#            F#       A    (E,F#,A/E,F#,A)
You can save your thoughts for another time
         A             A/G#            F#       A    (E,F#,A/E,F#,A)
Because the sun is rising on your bed
         A             A/G#            F#       A    (E,F#,A/E,F#,A)
And I already forgot everything you said

And I already forgot everything you said

And I already forgot everything you said

And I already forgot everything you said

Betting Everything chords – Royal Pirates

 This is the acoustic english version, for the official version in korean: do the whole song in C!

intro:  A A7 A A7 
I've been living a lie, 
      D Dm 
the world I knew before is a memory. 
     A A7 
And I keep thinking about her 
   D Dm 
I never knew I could feel this empty. 
        C#m 
Oh the price I pay it everyday 
      F#m 
I'm wearing myself thin
        Bm Dm  
but I can't stop, I need you 
            A 
I'm gonna hold on 
                  A7 
I don't want to give you up 
                    D Dm 
I'm betting everything that I have got on you and me 
                    A 
Honey you're the only one 
               A7 
I could never let you go 
           D Dm 
I already lost it all if I can't make you see 
         C#m Bm 
I'll do anything to win you back for good, 
               A A7 
I'm betting everything 
              D Dm 
I’m betting everything
     B B7 
My life was black and white 
       E Em 
but you came and colored in my everything. 
     B B7 
And I don't want to be blind 
         E Em 
but without you there is nothing I can see 
         Ebm 
Oh the price I pay it everyday 

     Abm 
I'm wearing myself thin 
       C#m Em 
but I can't stop, I need you 
                B 
I'm gonna hold on 
                B7 
I don't want give you up 
                    E Em 
I'm betting everything that I have got on you and me 
                  B 
Honey you're the only one 
                    B7 
I could never let you go 
             E Em 
I already lost it all if I can't make you see 
         Ebm C#m 
I'll do anything to win you back for good, 
                 B B7 
I'm betting everything 
                 E Em 
I’m betting everything
              Ebm Abm 
Come back to me 
              C#m Em 
Come back to me
              Ebm Abm 
Come back to me
              C#m Em B B7 
Come back to me
               E Em 
I'm betting everything
        B 
It’s only you
        B7 E Em B 
It’s only you

Five Of Everything Tabs by 311

 Intro
----

e|------------------------------------------------------------|
B|--------------------------------------------9-9-------------|
G|--------------------------8---------------------8-8---------|
D|-6-6--6--6-6-----6-6-9-9-----9-9--9--9-9-----------9--------|
A|------------------------------------------------------------|
E|------------------------------------------------------------|

e|------------------------------------------------------------------------|
B|----------------------10-10---------------------------------------------|
G|----------------------------9-9------------11--8------------------------|
D|-11-11--11--11-11--------------11----6-9--------9--11-9-----------------|
A|-------------------------------------------------------------9--7-6-----|
E|------------------------------------------------------------------------|

e|------------------------------------------------------------|
B|--------------------------------------------9-9-------------|
G|--------------------------8---------------------8-8---------|
D|-6-6--6--6-6-----6-6-9-9-----9-9--9--9-9-----------9--------|
A|------------------------------------------------------------|
E|------------------------------------------------------------|

e|---------------------------------------------------------------|
B|----------------------10-10------------------------------------|
G|----------------------------9-9-------------11--8----8~--------|
D|-11-11--11--11-11--------------11-----6-9--------9-------------|
A|---------------------------------------------------------------|
E|---------------------------------------------------------------|

Verse/Pre-Chorus Chords
----------------------

e|--------------------------------------------------|
B|--------------------------------------------------|
G|-----------------------------------------4--------|
D|-2-----------6----------7----------2-----4--------|
A|-2-----------6----------7----------2-----2--------|
E|-0-----------4----------5----------0-----2--------|

Chorus Chords
------------

e|--------------------------------------------------|
B|--------------------------------------------------|
G|-6---------------------------------------5--------|
D|-6-----------6----------7----------2-----5--------|
A|-4-----------6----------7----------2-----3--------|
E|-------------4----------5----------0--------------|

e|--------------------------------------------------|
B|--------------------------------------------------|
G|-6---------------------------------------4--------|
D|-6-----------6----------7----------2-----4--------|
A|-4-----------6----------7----------2-----2--------|
E|-------------4----------5----------0-----2--------|

Post Chorus Riff
--------------

e|----------------------------------------------------------|
B|----------------------------------------------------------|
G|----------------------------------------------------------|
D|----------------------------------------------------------|
A|-4---2-4-2-4---2---4-------4--2-4-------4---2-4-2-4-------|
E|------------------------4----------4--4-------------------|

e|----------------------------------------------------------|
B|----------------------------------------------------------|
G|----------------------------------------------------------|
D|----------------------------------------------------------|
A|-2---0-2-0-2---0---2-------2--0-2-------2---0-2-0-2-------|
E|------------------------2----------2--2-------------------|

e|----------------------------------------------------------|
B|----------------------------------------------------------|
G|----------------------------------------------------------|
D|----------------------------------------------------------|
A|-4---2-4-2-4---2---4-------4--2-4-------4---2-4-2-4-------|
E|------------------------4----------4--4-------------------|

e|----------------------------------------------------------|
B|

Everything Tabs by Before Their Eyes

 : Joshua Garcia (joshuag523@aol.com)

Tabs for the song: Everything by Before Their Eyes
Please rate and let me know if you have any corrections. Thank you.


Tuning: Drop C (C G C F A D)


Intro
Guitar 1:
D||---------------0~-------------------0~------------------0~-----------------7~--|
A||---------------3~-------------------5~------------------7~-----------------7~--|
F||-------------------------------------------------------------------------------|
C||----------2~-------------------4~------------------5~-----------------5~-------| x3
G||--/3~---3--------------/5~---5-------------/7~---7-------------7~---7----------|
C||-------------------------------------------------------------------------------|


Guitar 2:
D||--'7~----------------|--7~----10~-------10~--|
A||---------'7~----'7~--|--7~--------8-7-8~-----|
F||----------------'5~--|-----------------------|
C||---------------------|-----------------------| x3
G||---------------------|-----------------------|
C||---------------------|-----------------------|



Verse
Guitar 1:
D||---------------0~-------------------0~------------------0~-----------------7~--|
A||---------------3~-------------------5~------------------7~-----------------7~--|
F||-------------------------------------------------------------------------------|
C||----------2~-------------------4~------------------5~-----------------5~-------|
G||--/3~---3--------------/5~---5-------------/7~---7-------------7~---7----------|
C||-------------------------------------------------------------------------------|


Guitar 2:
D||--7~----10~-------10~--|
A||--7~--------8-7-8~-----|
F||-----------------------|
C||-----------------------|
G||-----------------------|
C||-----------------------|


Guitar 2 (Dub):
D||--------------------------------------------------------------------|
A||--------------------------------------------------------------------|
F||--0000000000000000000000000000000000000000000000000000000000000000--|
C||--5555555555555555555555555555555555555555555555555555555555555555--|
G||--7777777777777777777777777777777777777777777777777777777777777777--|
C||--------------------------------------------------------------------|



Pre-Chorus
Guitar 1/2:
D||-------------------------------------------------------------------|
A||-------------------------------------------------------------------|
F||--0~------------------------------0~-------------------------------|
C||--2~--2-2-2-2-2-2-2-2-2-2-2-2-2-2-4~--4-4-4-4-4-4-4-4-4-4-4-4-4-4--|
G||--3~--3-3-3-3-3-3-3-3-3-3-3-3-3-3-5~--5-5-5-5-5-5-5-5-5-5-5-5-5-5--|
C||-------------------------------------------------------------------|
         . . . . . . .                   . . . . . . .

D||-----------------------------------------------------------|
A||-----------------------------------------------------------|
F||-----------------------------------------------------------|
C||--5~--5-5-5-5-5-5-5-5-5-5-5-5-5-5-5-5-5-5-5-5-5-5-5-5-5-5--|
G||--7~--7-7-7-7-7-7-7-7-7-7-7-7-7-7-7-7-7-7-7-7-7-7-7-7-7-7--|
C||-----------------------------------------------------------|
         . . . . . . .

D||---------|
A||---------|
F||---------|
C||--5---5--|
G||--7---7--|
C||---------|



Chorus
Guitar 1/2:
D||---------------------------------------|---------------------------------------|
A||---------------------------------------|---------------------------------------|
F||--------5---5---5~-----3~---5~-----5~--|--------7---7---7~-----5~---7~-----7~--|
C||--------5---5---5~-----5~---5~-----5~--|--------7---7---7~-----5~---7~-----7~--|
G||--3333333---3---3~--3333~---3~--3333~--|--5555555---5---5~--5555~---5~--5555~--|
C||---------------------------------------|---------------------------------------|
     .....             ...         ...       .....             ...         ...

D||---------------------------------------------------------------------|
A||-----------

Everything But You chords – Willie Nelson

 1.
 D .                          A7 .                 D 
I've got a new car and it drives just like a dream
                        A7 .            D .   D7 
I've got money and can buy most anything      
          G .                 D 
I've got places to go and things to do 
          A7 .                         D . 
I've got everything everything but you   
2.
 D .                                 A7 .                  D 
I've got a date book that's just bulging you at the seams
                         A7 .            D .     D7 
I've got the numbers of all the local Queens  
           G .                       D .           
they give me memories that last a day or two
          A7 .                         D D7 
I've got everything everything but you    
3.
           G .                            D 
But this new car I Drive don't mean any thing
        A7 .                          D .      D7 
which reminds me there's a payment overdue
            G .                           D 
And they say that I'm a man who's got everything
             A7 .                        D 
yeah of got everything everything but you
Lead: D , A7 , D , A7 , D , D7 ,2x
Repeat 3rd verse:
End:

Everything Is Caving chords – Dear Reader

 Capo on 2nd fret.


 G Am 
Why is it that sadness doesn't make a sound?
    Em C 
I don't want you around
 G Am 
I gave you all I had, then you swiftly gave it back
   Em C 
I don't know what you want


  D Em C Am 
(Ooooooh... Oooooh)       (x2)

 G Am 
Everything is caving, falling into ruin
  Em C 
Everybody learns
 G Am 
We spend most our lives just picking up the mess
     Em C 
But there is never less


 D Em C Am 
Ooooooh... Oooooh.        (x2)


 G Am 
A broken little boy from the window where he fell
   Em C 
I did not love him well
     G Am 
If Jesus is my friend then I don't know where he went 
          Em C 
With the heart that he stole


                Em G 
I look in your eyes and there I see
              D Am 
A version of me I'd like to meet
               Em G 
While lying alone inside the dark
             D Am 
Wondering what our lives are for
                 C Em 
I must cut them out and zip them up     
                     G D 
In the palms of my hands so I can look
             Em G 
Whenever I feel like giving up
                    D Am 
But then you'd be blind so I must stop

The Theory Of Everything Part 1 chords – Ayreon

 Ayreon - The Theory of Everything Part 1

There Chords were sounded out by RjJena!

Tuning: Standard

Chords:
        EADGBe
 Em      |x79987
 Em (low)|022000
 D       |x59995
 C       |x35553
 Am      |577555
 B       |x24442
 D/F#    |2x023x
 C/G     |332010
 Am7     |x02010
 Gm      |355333
 F       |133211



[Main Riff*]

 Em D C Am Em D C B Em D C Am G D G B 

[Father:]
 Em D C Am  
I'm so close to the answer
 Em D C B 
A dazzling symphony of cosmic strings
 Em D C Am G   
I feel the pulse, vibrating just out of reach
     D G B 
The music of space


 Em D C Am  
One single master equation
 Em (low)    D/F# C/G Am7 B D 
Unification of the great and small
 Em (low)       D/F# C/G Am        
I hear the notes but the arrangement is wrong
         G D G B 
And I'm starting to doubt, but I can't give up now I'm so near

[Mother:]
 C Gm 
Can't you see that I need you out here?
 C Em (low)
And what about our boy?
 F Am              
I think he's got something to give
 G Gm                  [Main Riff*]
What secrets lie... beyond these hollow eyes?

[Father:]
 Em D C Am 
I'm sorry you feel neglected
 Em (low)    D/F# C/G Am7 B D 
But it's clear that you don't understand
 Em D C Am 
I'm aware, and I want to be there
         G D G B C 
I just need some more time, for the answer is blindingly near

[Mother:]
                   Gm 
Are you trying to drive us away
 C Em (low)
Just when we need you most?
 F Am 
You might find he's got something to give
 G Gm                   [--> 03. Patterns]
What secrets lie... beyond these eyes?


Enjoy!

* you can find the main riff here:
http://tabs.ultimate-guitar.com/a/ayreon/the_theory_of_everything_intro_tab.htm

Everything But You chords – Alex Goot

 2.Everything But You
Words and Music by Alexander George Gut and Kurt Hugo Schneider

 Cadd9 
I bet you're listening, even when you're with him
 G/B D  
I feel you thinking of me 
 Cadd9 G/B D 
under the circumstance if we could try again, then you could finally see
 Cadd9 
It's like a mystery, the way you get to me, and I can't figure it out

when I contemplate all the things I need
          G D 
know there's one thing I'm still without

 Dsus4 D G5 
  I've got my life; I've got the time to fill it
 Dsus4          
I've got my mind racing like a bullet
 Em7 Dsus4 Cadd9 
I've got it all, everything but you
 G5 
Got this guitar; I strung my heart into it
 Dsus4 
We've got tonight; let's turn it into music
 Em7 Dsus4 Cadd9 
I've got it all, everything but you
 Cadd9 G5 
Everything but you!

 Cadd9 
The mind is broken down, it's all I think about
 G/B D 
feels like I'm living a lie
 Csus2 
You've got me sinking here, no I'm not thinking clear
 G/B D 
Girl, won't you give me a try
 Csus2 
You're like a drug to me, and there's no remedy
 G/B D 
except for hitting the ground
 Am7 
when I contemplate all the things I need
                 G D 
Know there's one thing I'm still without   ^(to Chorus)


 Am7 G D 
Won't say it's love but I can't get enough and I don't care anymore
 Am7 
I feel the rush ,and uh, the loss of blood
               G D 
'cause you're dragging my heart on the floor ^(To Chorus x2)


Repeat 1st part of the chorus softly, then repeat the whole chorus 1 more time. End on G

Remember Everything Acoustic Tabs by Five Finger Death Punch

 Author/Artist: Five Finger Death Punch
Title: Remember Everything
       Live Acoustic
: Robert Brown
Email: bahburt

Tuning: (from low to high)  A E A D F# B

This is the acoustic version they play live.
Transcribed to the best of my abilities. Hope you enjoy it!

    Intro

-|--------------------|---------------------|-----------------|--------------|
-|--------------------|---------------------|-----------------|--------------|
-|--------------------|---------------------|-----------------|--------------|
-|--------11-9--------|--------11-9---------|-----4-7-6-----4-|--------------|
-|---9-12------11---9-|---9-12------11-12-9-|---4-------7-----|--------------|
-|-0--------------0---|-0-------------------|-4-----------4---|--------------|


-|-------------------|--------------------|---------------------|------------|
-|-------------------|--------------------|---------------------|------------|
-|-------------------|--------------------|---------------------|------------|
-|-----4-7-6-------7-|--------11-9--------|--------11-9---------|------------|
-|---4-------7-------|---9-12------11---9-|---9-12------11-12-9-|------------|
-|-4-----------4\7---|-0--------------0---|-0-------------------|------------|


-|-------------------0------------------|------------------------------------|
-|-------------------0------------------|------------------------------------|
-|-------------------4------------------|------------------------------------|
-|-----4-7-6---4-----4------------------|------------------------------------|
-|---4-------7------------4/------------|------------------------------------|
-|-4-------------4--------4/------------|------------------------------------|
    Verse

-|--------------------|---------------------|-----------------|--------------|
-|--------------------|---------------------|-----------------|--------------|
-|--------------------|---------------------|-----------------|--------------|
-|--------11-9--------|--------11-9---------|-----4-7-6-----4-|--------------|
-|---9-12------11---9-|---9-12------11-12-9-|---4-------7-----|--------------|
-|-0--------------0---|-0-------------------|-4-----------4---|--------------|


-|-------------------|--------------------|---------------------|------------|
-|-------------------|--------------------|---------------------|------------|
-|-------------------|--------------------|---------------------|------------|
-|-----4-7-6-------7-|--------11-9--------|--------11-9---------|------------|
-|---4-------7-------|---9-12------11---9-|---9-12------11-12-9-|------------|
-|-4-----------4\7---|-0--------------0---|-0-------------------|------------|


-|-----------------|----------------------|--------------------|-------------|
-|-----------------|----------------------|--------------------|-------------|
-|-----------------|----------------------|--------------------|-------------|
-|-----4-7-6-----4-|-------7-11-9---------|-12---11---9--------|-------------|
-|---4-------7-----|-----7--------11-12-9-|---------------12---|-------------|
-|-4-----------4---|-4\7------------------|----9----9---9----9-|-------------|


-|-----------------|-----------------|-----------------|---------------------|
-|-----------------|-------0---------|-------5-------9-|---------------------|
-|-6---6---4-------|-----2---2---2---|-----6-------9---|---------------------|
-|-------------7---|---2-----------2-|---6-------9-----|---------------------|
-|-----------------|-0---------0-----|-4-------7-------|---------------------|
-|---4---4---4---4-|-----------------|-----------------|---------------------|
    Chorus

-|---------------|---------------|-------------------------------|-----------|
-|-------0-------|---------------|-------3-------------7-------9-|-----------|
-|-----2---2-----|-------1-------|-----4---4---------7-------9---|-----------|
-|---2---------2-|-----2---2---

Everything I Own chords – The Front Bottoms

 intro is | F# Db Abm B |
and in the verse each note doubles in length so its |F Db | Abm B|

                   F# Db 
Sometimes you get sad when we're together
                        Abm B 
Because you're not sure if you'll miss me when I'm gone
                     F# Db             
Just try to appreciate what you got while you got it
           Abm B 
So if it ever goes away, you can say you enjoyed it while it lasted
                   Abm Db  
Sometimes I don't feel like singing, I don't really like these songs
                   Abm Db B 
Sometimes I don't feel like dancing, DJ please don't turn the beat on
              Ebm Db F# B 
Let's keep it quiet, keep me honest, and keep me true (ooh ooh ohh)
                   Ebm Db F# B 
Keep me in love; keep me believing it's with you  (ooh ooh ohh, ooh ooh ohh
        Db        
ooh ohh ohh, ooh ooh ohh)

       F# B Abm Db     
But who's gonna push my wheelchair around when I get sick?
          F# B Abm Db     
God forbid I ever stop feeling sorry for myself, for being selfish
          F# B Abm Db     
This is not the way I plan on living for the rest of my life
          F# B Abm Db     
But for right now, it gets me by, it gets me by

 F# B Abm Db 

F# riff, two measures

 F# Db Abm B F#  
It's reached the point in the night where I need to decide
                      Db 
Whether I'm gonna fall asleep or watch the sunrise
          Abm 
We are both into letting this develop
             B 
But the thought of starting over always sounded much better
         F# 
But I won't stop this, and you won't stop this
        Db 
It'll probably go further than either of us wants it
      Abm 
It all comes down to the fact that I don't care to
                 B 
Sacrifice a good time 'cause someone says I have to
                 Abm Db 
Next thing I know, I am removing all my clothes
                   Abm Db B 
And you are dancing around the room to some song on the radio
                Ebm Db F# B 
You say I deserve it, what is coming, the good and the bad bad, bad bad
           Ebm Db F#                
I don't regret it, how could i? You were the best I ever had
 B Db                           
I ever had, I ever had, I ever had, I ever

       F# B Abm Db     
But who's gonna push my wheelchair around when I get sick?
          F# B Abm Db     
God forbid I ever stop feeling sorry for myself, for being selfish
          F# B Abm Db     
This is not the way I plan on living for the rest of my life
          F# B Abm Db     
But for right now, it gets me by, it gets me by